  0
SECTION
  2
HEADER
  9
$ACADVER
  1
AC1009
  9
$INSBASE
 10
0
 20
0
  9
$EXTMIN
 10
-1.24015461679973
 20
-1.558968083857362
  9
$EXTMAX
 10
1.26382473916271
 20
1.19997447306159
  9
$LIMMIN
 10
-1.24015461679973
 20
-1.558968083857362
  9
$LIMMAX
 10
1.26382473916271
 20
1.19997447306159
  9
$VIEWCTR
 10
10
 20
10
  9
$VIEWSIZE
 40
10
  9
$SNAPMODE
 70
0
  9
$SNAPUNIT
 10
1
 20
1
  9
$SNAPBASE
 10
0
 20
0
  9
$SNAPANG
 50
0
  9
$SNAPSTYLE
 70
0
  9
$SNAPISOPAIR
 70
0
  9
$GRIDMODE
 70
0
  9
$GRIDUNIT
 10
0
 20
0
  9
$ORTHOMODE
 70
0
  9
$REGENMODE
 70
1
  9
$FILLMODE
 70
1
  9
$QTEXTMODE
 70
0
  9
$DRAGMODE
 70
2
  9
$LTSCALE
 40
1
  9
$OSMODE
 70
0
  9
$ATTMODE
 70
1
  9
$TEXTSIZE
 40
3.5
  9
$TRACEWID
 40
0.5
  9
$TEXTSTYLE
  7
STANDARD
  9
$CLAYER
  8
0
  9
$CELTYPE
  6
BYLAYER
  9
$CECOLOR
 62
256
  9
$DIMSCALE
 40
1
  9
$DIMASZ
 40
0.18
  9
$DIMEXO
 40
0.0625
  9
$DIMDLI
 40
0.38
  9
$DIMRND
 40
0
  9
$DIMDLE
 40
0
  9
$DIMEXE
 40
0.18
  9
$DIMTP
 40
0
  9
$DIMTM
 40
0
  9
$DIMTXT
 40
0.18
  9
$DIMCEN
 40
0.09
  9
$DIMTSZ
 40
0
  9
$DIMTOL
 70
0
  9
$DIMLIM
 70
0
  9
$DIMTIH
 70
1
  9
$DIMTOH
 70
1
  9
$DIMSE1
 70
0
  9
$DIMSE2
 70
0
  9
$DIMTAD
 70
0
  9
$DIMZIN
 70
0
  9
$DIMBLK
  1

  9
$DIMASO
 70
1
  9
$DIMSHO
 70
1
  9
$DIMPOST
  1

  9
$DIMAPOST
  1

  9
$DIMALT
 70
0
  9
$DIMALTD
 70
2
  9
$DIMALTF
 40
25.4
  9
$DIMLFAC
 40
1
  9
$DIMTOFL
 70
0
  9
$DIMTVP
 40
0
  9
$DIMTIX
 70
0
  9
$DIMSOXD
 70
0
  9
$DIMSAH
 70
0
  9
$DIMBLK1
  1

  9
$DIMBLK2
  1

  9
$DIMSTYLE
  2
*UNNAMED
  9
$DIMCLRD
 70
0
  9
$DIMCLRE
 70
0
  9
$DIMCLRT
 70
0
  9
$DIMTFAC
 40
1
  9
$DIMGAP
 40
0.09
  9
$LUNITS
 70
2
  9
$LUPREC
 70
4
  9
$AXISMODE
 70
0
  9
$AXISUNIT
 10
0
 20
0
  9
$SKETCHINC
 40
0.1
  9
$FILLETRAD
 40
2
  9
$AUNITS
 70
0
  9
$AUPREC
 70
0
  9
$MENU
  1
ACAD
  9
$ELEVATION
 40
0
  9
$THICKNESS
 40
0
  9
$VIEWDIR
 10
0
 20
0
 30
1
  9
$LIMCHECK
 70
0
  9
$BLIPMODE
 70
1
  9
$CHAMFERA
 40
0
  9
$CHAMFERB
 40
0
  9
$FASTZOOM
 70
1
  9
$SKPOLY
 70
0
  9
$ANGBASE
 50
0
  9
$ANGDIR
 70
0
  9
$PDMODE
 70
0
  9
$PDSIZE
 40
0
  9
$PLINEWID
 40
0
  9
$COORDS
 70
2
  0
ENDSEC
  0
SECTION
  2
TABLES
  0
TABLE
  2
LTYPE
 70
9
  0
LTYPE
  2
CONTINUOUS
 70
64
  3
Solid line
 72
65
 73
0
 40
0
  0
LTYPE
  2
BORDER
 70
64
  3
__ __ . __ __ .
 72
65
 73
6
 40
0.1270565651212675
 49
0.03630187574893358
 49
-0.01815093787446679
 49
0.03630187574893358
 49
-0.01815093787446679
 49
0
 49
-0.01815093787446679
  0
LTYPE
  2
CENTER
 70
64
  3
____ _ ____ _
 72
65
 73
4
 40
0.1452075029957343
 49
0.09075468937233394
 49
-0.01815093787446679
 49
0.01815093787446679
 49
-0.01815093787446679
  0
LTYPE
  2
DASHDOT
 70
64
  3
__ . __ . __ .
 72
65
 73
4
 40
0.07260375149786716
 49
0.03630187574893358
 49
-0.01815093787446679
 49
0
 49
-0.01815093787446679
  0
LTYPE
  2
DASHED
 70
64
  3
__ __ __ __ __
 72
65
 73
2
 40
0.05445281362340037
 49
0.03630187574893358
 49
-0.01815093787446679
  0
LTYPE
  2
DIVIDE
 70
64
  3
__ . . __ . . 
 72
65
 73
6
 40
0.09075468937233394
 49
0.03630187574893358
 49
-0.01815093787446679
 49
0
 49
-0.01815093787446679
 49
0
 49
-0.01815093787446679
  0
LTYPE
  2
DOT
 70
64
  3
..............
 72
65
 73
4
 40
0.03630187574893358
 49
0
 49
-0.01815093787446679
 49
0
 49
-0.01815093787446679
  0
LTYPE
  2
HIDDEN
 70
64
  3
_ _ _ _ _ _ _
 72
65
 73
2
 40
0.02722640681170018
 49
0.01815093787446679
 49
-0.009075468937233395
  0
LTYPE
  2
PHANTOM
 70
64
  3
_____ _ _ _____ _ _ 
 72
65
 73
6
 40
0.1815093787446679
 49
0.09075468937233394
 49
-0.01815093787446679
 49
0.01815093787446679
 49
-0.01815093787446679
 49
0.01815093787446679
 49
-0.01815093787446679
  0
ENDTAB
  0
TABLE
  2
LAYER
 70
2
  0
LAYER
  2
0
 70
0
 62
7
  6
CONTINUOUS
  0
ENDTAB
  0
TABLE
  2
STYLE
 70
4
  0
STYLE
  2
STANDARD
 70
0
 40
0
 41
1
 50
0
 71
0
 42
3.5
  3
txt
  4

  0
STYLE
  2
SIMPLEX
 70
0
 40
0
 41
1
 50
0
 71
0
 42
3.5
  3
simplex
  4

  0
STYLE
  2
COMPLEX
 70
0
 40
0
 41
1
 50
0
 71
0
 42
3.5
  3
complex
  4

  0
STYLE
  2
ITALIC
 70
0
 40
0
 41
1
 50
0
 71
0
 42
3.5
  3
italic
  4

  0
ENDTAB
  0
TABLE
  2
VIEW
 70
0
  0
ENDTAB
  0
ENDSEC
  0
SECTION
  2
BLOCKS
  0
BLOCK
  8
0
  2
*D0
 70
1
 10
0
 20
0
 30
0
  0
LINE
  8
0
 10
-1.01249999999991
 20
1.13497447306159
 30
0
 11
1.012500000000091
 21
1.13497447306159
 31
0
  0
LINE
  8
0
 10
-1.01249999999991
 20
1.062499999999909
 30
0
 11
-1.01249999999991
 21
1.16497447306159
 31
0
  0
LINE
  8
0
 10
1.012500000000091
 20
1.062499999999909
 30
0
 11
1.012500000000091
 21
1.16497447306159
 31
0
  0
LINE
  8
0
 10
0.9948223304704276
 20
1.117296803531926
 30
0
 11
1.030177669529755
 21
1.152652142591253
 31
0
  0
LINE
  8
0
 10
-0.9948223304702462
 20
1.152652142591253
 30
0
 11
-1.030177669529573
 21
1.117296803531926
 31
0
  0
TEXT
  8
0
 62
7
 10
-0.0554410547702248
 20
1.14997447306159
 30
0
 40
0.05
  1
2,03
 41
0.9
  0
ENDBLK
  8
0
  0
BLOCK
  8
0
  2
*D1
 70
1
 10
0
 20
0
 30
0
  0
LINE
  8
0
 10
1.23382473916271
 20
-1.01250000000009
 30
0
 11
1.23382473916271
 21
1.012499999999909
 31
0
  0
LINE
  8
0
 10
1.062500000000091
 20
-1.01250000000009
 30
0
 11
1.26382473916271
 21
-1.01250000000009
 31
0
  0
LINE
  8
0
 10
1.062500000000091
 20
1.012499999999909
 30
0
 11
1.26382473916271
 21
1.012499999999909
 31
0
  0
LINE
  8
0
 10
1.251502408692374
 20
0.9948223304702455
 30
0
 11
1.216147069633047
 21
1.030177669529573
 31
0
  0
LINE
  8
0
 10
1.216147069633047
 20
-0.994822330470426
 30
0
 11
1.251502408692374
 21
-1.030177669529753
 31
0
  0
TEXT
  8
0
 62
7
 10
1.21882473916271
 20
-0.07148263576287076
 30
0
 40
0.05
  1
2,03
 50
90
 41
0.9
  0
ENDBLK
  8
0
  0
BLOCK
  8
0
  2
*D2
 70
1
 10
0
 20
0
 30
0
  0
LINE
  8
0
 10
-1.17515461679973
 20
-0.9350000000000901
 30
0
 11
-1.17515461679973
 21
0.93499999999991
 31
0
  0
LINE
  8
0
 10
-0.04999999999991012
 20
-0.9350000000000901
 30
0
 11
-1.20515461679973
 21
-0.9350000000000901
 31
0
  0
LINE
  8
0
 10
-0.04999999999991012
 20
0.9349999999999099
 30
0
 11
-1.20515461679973
 21
0.93499999999991
 31
0
  0
LINE
  8
0
 10
-1.157476947270066
 20
0.9173223304702464
 30
0
 11
-1.192832286329394
 21
0.9526776695295737
 31
0
  0
LINE
  8
0
 10
-1.192832286329394
 20
-0.9173223304704264
 30
0
 11
-1.157476947270066
 21
-0.9526776695297537
 31
0
  0
TEXT
  8
0
 62
7
 10
-1.19015461679973
 20
-0.3266369783171046
 30
0
 40
0.05
  1
Durchmesser 1,87
 50
90
 41
0.9
  0
ENDBLK
  8
0
  0
ENDSEC
  0
SECTION
  2
ENTITIES
  0
POINT
  8
0
  6
DASHED
 10
9.094947017729283e-14
 20
-9.094947017729283e-14
 30
0
  0
LINE
  8
0
  6
DASHED
 10
0.1283655711906923
 20
0.03410844498660025
 30
0
 11
0.0273299493304994
 21
0.08933891941878391
 31
0
  0
LINE
  8
0
  6
DASHED
 10
0.154957406645026
 20
0.07737304523709829
 30
0
 11
-0.01024746742747902
 21
0.09286203780145751
 31
0
  0
LINE
  8
0
  6
DASHED
 10
0.2079187636966689
 20
0.1635405437348317
 30
0
 11
-0.04615249180815226
 21
0.08123002002468641
 31
0
  0
LINE
  8
0
  6
DASHED
 10
0.3953878383007869
 20
0.4685505001181227
 30
0
 11
-0.07452540388538184
 21
0.05634121785187016
 31
0
  0
LINE
  8
0
 10
-0.5585707352778982
 20
0.7340471341344246
 30
0
 11
-0.8158293837325062
 21
0.4618751634786304
 31
0
  0
LINE
  8
0
 10
-0.4072029437695664
 20
-0.827654652633305
 30
0
 11
-0.04877455632289093
 21
-0.9362303630280667
 31
0
  0
LINE
  8
0
 10
-0.7014398005714675
 20
-0.5990064003116531
 30
0
 11
-0.4152176643595412
 21
-0.8405358655071679
 31
0
  0
LINE
  8
0
 10
-0.8812012922296473
 20
-0.2725999706764032
 30
0
 11
-0.7138970188952309
 21
-0.60766544776915
 31
0
  0
LINE
  8
0
 10
-0.9171502434375708
 20
0.0982949256182974
 30
0
 11
-0.8960679833360555
 21
-0.2756236913618687
 31
0
  0
LINE
  8
0
 10
-0.8034197653863803
 20
0.4531480354435526
 30
0
 11
-0.9320001550787511
 21
0.1014000046005821
 31
0
  0
LINE
  8
0
 10
-0.04651034031963174
 20
-0.9212292058351124
 30
0
 11
0.3256285864027496
 21
-0.8791315451725986
 31
0
  0
LINE
  8
0
 10
0.3217727765096599
 20
-0.8644586408484612
 30
0
 11
0.6468889629219484
 21
-0.6785579707364788
 31
0
  0
LINE
  8
0
 10
0.6375423974491805
 20
-0.666607945418491
 30
0
 11
0.8625767013079967
 21
-0.3672433584979172
 31
0
  0
LINE
  8
0
 10
0.8492647449332728
 20
-0.3599664629569169
 30
0
 11
0.9374914428292758
 21
0.004005573872441346
 31
0
  0
LINE
  8
0
 10
0.9223866142285188
 20
0.005421746241426263
 30
0
 11
0.8594070600500272
 21
0.3746007943614813
 31
0
  0
LINE
  8
0
 10
0.8449744756424771
 20
0.3699251234410704
 30
0
 11
0.641066967620227
 21
0.6840609570982715
 31
0
  0
LINE
  8
0
 10
0.6296620331993344
 20
0.6740565149802789
 30
0
 11
0.5530917786957906
 21
0.725132936890318
 31
0
  0
LINE
  8
0
 10
0.08765878387573139
 20
-0.03231572779288671
 30
0
 11
0.1195102254122103
 21
0.01887572600327076
 31
0
  0
LINE
  8
0
 10
-1.01249999999991
 20
1.012499999999909
 30
0
 11
1.012500000000091
 21
1.012499999999909
 31
0
  0
LINE
  8
0
 10
-1.01249999999991
 20
-1.01250000000009
 30
0
 11
-1.01249999999991
 21
1.012499999999909
 31
0
  0
LINE
  8
0
 10
1.012500000000091
 20
1.012499999999909
 30
0
 11
1.012500000000091
 21
-1.01250000000009
 31
0
  0
LINE
  8
0
 10
1.012500000000091
 20
-1.01250000000009
 30
0
 11
-1.01249999999991
 21
-1.01250000000009
 31
0
  0
LINE
  8
0
 10
-0.3744285784619787
 20
0.2819419349541703
 30
0
 11
-0.5360616071484602
 21
0.4686629024313018
 31
0
  0
LINE
  8
0
 10
-0.5360616071484602
 20
0.4686629024313018
 30
0
 11
-0.3831583158353387
 21
0.4486532124102952
 31
0
  0
LINE
  8
0
 10
-0.3831583158353387
 20
0.4486532124102952
 30
0
 11
-0.3744285784619787
 21
0.2819419349541703
 31
0
  0
LINE
  8
0
  6
DASHED
 10
0.318104389924989
 20
0.8818819916011217
 30
0
 11
-0.1039737716714498
 21
-0.005576722943790628
 31
0
  0
LINE
  8
0
  6
DASHED
 10
0.5530917786957906
 20
0.725132936890318
 30
0
 11
0.318104389924989
 21
0.8818819916011217
 31
0
  0
LINE
  8
0
 10
0.641066967620227
 20
0.6840609570982715
 30
0
 11
0.3953878383007869
 21
0.4685505001181227
 31
0
  0
LINE
  8
0
 10
0.8594070600500272
 20
0.3746007943614813
 30
0
 11
0.2079187636966689
 21
0.1635405437348317
 31
0
  0
LINE
  8
0
 10
0.9374914428292758
 20
0.004005573872441346
 30
0
 11
0.154957406645026
 21
0.07737304523709829
 31
0
  0
LINE
  8
0
 10
0.8625767013079967
 20
-0.3672433584979172
 30
0
 11
0.1283655711906923
 21
0.03410844498660025
 31
0
  0
LINE
  8
0
 10
0.6468889629219484
 20
-0.6785579707364788
 30
0
 11
0.06044710317433601
 21
0.07123563975401703
 31
0
  0
LINE
  8
0
 10
0.3256285864027496
 20
-0.8791315451725986
 30
0
 11
0.08369925619829155
 21
0.04150666410583835
 31
0
  0
LINE
  8
0
 10
-0.04877455632289093
 20
-0.9362303630280667
 30
0
 11
0.08765878387573139
 21
-0.03231572779288671
 31
0
  0
LINE
  8
0
 10
-0.4152176643595412
 20
-0.8405358655071679
 30
0
 11
0.08765878387573139
 21
-0.03231572779288671
 31
0
  0
LINE
  8
0
 10
-0.7138970188952309
 20
-0.60766544776915
 30
0
 11
0.06771996141250018
 21
-0.06436128867298885
 31
0
  0
LINE
  8
0
 10
-0.8960679833360555
 20
-0.2756236913618687
 30
0
 11
0.0367292036244271
 21
-0.08590305148522111
 31
0
  0
LINE
  8
0
 10
-0.9320001550787511
 20
0.1014000046005821
 30
0
 11
-0.0002557806003505902
 21
-0.09342538857096677
 31
0
  0
LINE
  8
0
 10
-0.8158293837325062
 20
0.4618751634786304
 30
0
 11
-0.03719902128903779
 21
-0.08570065033873016
 31
0
  0
LINE
  8
0
 10
-0.7112779760474796
 20
0.9824999999999101
 30
0
 11
-0.06807136103711402
 21
-0.06398951835956086
 31
0
  0
LINE
  8
0
 10
0.05116252108918889
 20
-0.09150000000008732
 30
0
 11
0.7112779760476662
 21
0.9824999999999101
 31
0
  0
LINE
  8
0
 10
0.7112779760476662
 20
0.9824999999999101
 30
0
 11
-0.7112779760474796
 21
0.9824999999999101
 31
0
  0
LINE
  8
0
 10
9.003997547551991e-14
 20
1.073268678160827
 30
0
 11
9.003997547551991e-14
 21
0.9349999999999099
 31
0
  0
LINE
  8
0
 10
1.110769576149512
 20
-9.003997547551991e-14
 30
0
 11
-1.119290768678068
 21
-9.003997547551991e-14
 31
0
  0
LINE
  8
0
 10
9.003997547551991e-14
 20
0.9349999999999099
 30
0
 11
9.003997547551991e-14
 21
-0.9350000000000901
 31
0
  0
LINE
  8
0
 10
9.003997547551991e-14
 20
-0.9350000000000901
 30
0
 11
9.003997547551991e-14
 21
-1.122377155172501
 31
0
  0
LINE
  8
0
 10
-1.000257998573656
 20
-1.558968083857362
 30
0
 11
-1.000257998573656
 21
-1.468900362609129
 31
0
  0
LINE
  8
0
 10
-0.9435067149249371
 20
-1.468900362609129
 30
0
 11
-0.9435067149249371
 21
-1.558968083857362
 31
0
  0
LINE
  8
0
 10
-0.9435067149249371
 20
-1.558968083857362
 30
0
 11
-1.000257998573656
 21
-1.468900362609129
 31
0
  0
LINE
  8
0
 10
-0.911631555986507
 20
-1.558968083857362
 30
0
 11
-0.8625067149249372
 21
-1.558968083857362
 31
0
  0
LINE
  8
0
 10
-0.911631555986507
 20
-1.468900362609151
 30
0
 11
-0.911631555986507
 21
-1.558968083857362
 31
0
  0
LINE
  8
0
 10
-0.8342940723209757
 20
-1.509847743899254
 30
0
 11
-0.8342940723209757
 21
-1.468900362609151
 31
0
  0
LINE
  8
0
 10
-0.8342940723209757
 20
-1.509847743899254
 30
0
 11
-0.8019157488242737
 21
-1.509847743899254
 31
0
  0
LINE
  8
0
 10
-0.798617319103185
 20
-1.558968083857362
 30
0
 11
-0.8342940723209757
 21
-1.558968083857362
 31
0
  0
LINE
  8
0
 10
-0.7891343336549761
 20
-1.554582696991964
 30
0
 11
-0.798617319103185
 21
-1.558968083857362
 31
0
  0
LINE
  8
0
 10
-0.7852174483611052
 20
-1.550459659840359
 30
0
 11
-0.7891343336549761
 21
-1.554582696991964
 31
0
  0
LINE
  8
0
 10
-0.7815067149249372
 20
-1.541595129964952
 30
0
 11
-0.7852174483611052
 21
-1.550459659840359
 31
0
  0
LINE
  8
0
 10
-0.7817128667822943
 20
-1.52943217036817
 30
0
 11
-0.7815067149249372
 21
-1.541595129964952
 31
0
  0
LINE
  8
0
 10
-0.7854236002184662
 20
-1.518918425632372
 30
0
 11
-0.7817128667822943
 21
-1.52943217036817
 31
0
  0
LINE
  8
0
 10
-0.7903712448002772
 20
-1.513764629192869
 30
0
 11
-0.7854236002184662
 21
-1.518918425632372
 31
0
  0
LINE
  8
0
 10
-0.7989301012319957
 20
-1.50865348486232
 30
0
 11
-0.7903712448002772
 21
-1.513764629192869
 31
0
  0
LINE
  8
0
 10
-0.7989301012319957
 20
-1.50865348486232
 30
0
 11
-0.8019157488242737
 21
-1.509847743899254
 31
0
  0
LINE
  8
0
 10
-0.8019157488242737
 20
-1.509847743899254
 30
0
 11
-0.7989301012319957
 21
-1.50865348486232
 31
0
  0
LINE
  8
0
 10
-0.7957311930971664
 20
-1.507373921608369
 30
0
 11
-0.7989301012319957
 21
-1.50865348486232
 31
0
  0
LINE
  8
0
 10
-0.7899589410852059
 20
-1.503457036314451
 30
0
 11
-0.7957311930971664
 21
-1.507373921608369
 31
0
  0
LINE
  8
0
 10
-0.7852174483611052
 20
-1.494386354581357
 30
0
 11
-0.7899589410852059
 21
-1.503457036314451
 31
0
  0
LINE
  8
0
 10
-0.7858359039338866
 20
-1.485934128421022
 30
0
 11
-0.7852174483611052
 21
-1.494386354581357
 31
0
  0
LINE
  8
0
 10
-0.787897422509417
 20
-1.477894205975869
 30
0
 11
-0.7858359039338866
 21
-1.485934128421022
 31
0
  0
LINE
  8
0
 10
-0.7938758263790768
 20
-1.471503498391066
 30
0
 11
-0.787897422509417
 21
-1.477894205975869
 31
0
  0
LINE
  8
0
 10
-0.803977267399805
 20
-1.468900362609151
 30
0
 11
-0.7938758263790768
 21
-1.471503498391066
 31
0
  0
LINE
  8
0
 10
-0.8342940723209757
 20
-1.468900362609151
 30
0
 11
-0.803977267399805
 21
-1.468900362609151
 31
0
  0
LINE
  8
0
 10
-0.8342940723209757
 20
-1.558968083857362
 30
0
 11
-0.8342940723209757
 21
-1.509847743899254
 31
0
  0
LINE
  8
0
 10
-0.6505627438989469
 20
-1.558968083857362
 30
0
 11
-0.6195067149249371
 21
-1.558968083857362
 31
0
  0
LINE
  8
0
 10
-0.6578616262839643
 20
-1.557016820538482
 30
0
 11
-0.6505627438989469
 21
-1.558968083857362
 31
0
  0
LINE
  8
0
 10
-0.6621550865109858
 20
-1.554583859743412
 30
0
 11
-0.6578616262839643
 21
-1.557016820538482
 31
0
  0
LINE
  8
0
 10
-0.6661623160569543
 20
-1.550290399516408
 30
0
 11
-0.6621550865109858
 21
-1.554583859743412
 31
0
  0
LINE
  8
0
 10
-0.6681659308299459
 20
-1.541131017698913
 30
0
 11
-0.6661623160569543
 21
-1.550290399516408
 31
0
  0
LINE
  8
0
 10
-0.6681659308299459
 20
-1.513366641564759
 30
0
 11
-0.6681659308299459
 21
-1.541131017698913
 31
0
  0
LINE
  8
0
 10
-0.6663054313989669
 20
-1.50477972111108
 30
0
 11
-0.6681659308299459
 21
-1.513366641564759
 31
0
  0
LINE
  8
0
 10
-0.6622982018529145
 20
-1.499913799520566
 30
0
 11
-0.6663054313989669
 21
-1.50477972111108
 31
0
  0
LINE
  8
0
 10
-0.6578616262839643
 20
-1.497767069407077
 30
0
 11
-0.6622982018529145
 21
-1.499913799520566
 31
0
  0
LINE
  8
0
 10
-0.649990282533956
 20
-1.495825231273083
 30
0
 11
-0.6578616262839643
 21
-1.497767069407077
 31
0
  0
LINE
  8
0
 10
-0.6196498302638972
 20
-1.495825231273083
 30
0
 11
-0.649990282533956
 21
-1.495825231273083
 31
0
  0
LINE
  8
0
 10
-0.5424717163395252
 20
-1.543274619000178
 30
0
 11
-0.542355986124894
 21
-1.495825231273083
 31
0
  0
LINE
  8
0
 10
-0.5465753795559249
 20
-1.55230588370181
 30
0
 11
-0.5424717163395252
 21
-1.543274619000178
 31
0
  0
LINE
  8
0
 10
-0.552497335248976
 20
-1.556673326026065
 30
0
 11
-0.5465753795559249
 21
-1.55230588370181
 31
0
  0
LINE
  8
0
 10
-0.5607140487759571
 20
-1.558968083857362
 30
0
 11
-0.552497335248976
 21
-1.556673326026065
 31
0
  0
LINE
  8
0
 10
-0.5727800334999374
 20
-1.558968083857362
 30
0
 11
-0.5607140487759571
 21
-1.558968083857362
 31
0
  0
LINE
  8
0
 10
-0.5809967470269148
 20
-1.55659930157988
 30
0
 11
-0.5727800334999374
 21
-1.558968083857362
 31
0
  0
LINE
  8
0
 10
-0.5871407760579351
 20
-1.552009785917289
 30
0
 11
-0.5809967470269148
 21
-1.55659930157988
 31
0
  0
LINE
  8
0
 10
-0.5909900472609443
 20
-1.543200876822812
 30
0
 11
-0.5871407760579351
 21
-1.552009785917289
 31
0
  0
LINE
  8
0
 10
-0.591064071705976
 20
-1.511444389415264
 30
0
 11
-0.5909900472609443
 21
-1.543200876822812
 31
0
  0
LINE
  8
0
 10
-0.5869187027199659
 20
-1.502635480320787
 30
0
 11
-0.591064071705976
 21
-1.511444389415264
 31
0
  0
LINE
  8
0
 10
-0.5809967470269148
 20
-1.498045964658195
 30
0
 11
-0.5869187027199659
 21
-1.502635480320787
 31
0
  0
LINE
  8
0
 10
-0.572631984609874
 20
-1.495825231273083
 30
0
 11
-0.5809967470269148
 21
-1.498045964658195
 31
0
  0
LINE
  8
0
 10
-0.542355986124894
 20
-1.495825231273083
 30
0
 11
-0.572631984609874
 21
-1.495825231273083
 31
0
  0
LINE
  8
0
 10
-0.5425040350179152
 20
-1.556525277133695
 30
0
 11
-0.5424717163395252
 21
-1.543274619000178
 31
0
  0
LINE
  8
0
 10
-0.5404313505249155
 20
-1.558968083857362
 30
0
 11
-0.5425040350179152
 21
-1.556525277133695
 31
0
  0
LINE
  8
0
 10
-0.5385067149249372
 20
-1.558968083857362
 30
0
 11
-0.5404313505249155
 21
-1.558968083857362
 31
0
  0
LINE
  8
0
 10
-0.5130425131554658
 20
-1.55741391997248
 30
0
 11
-0.5130425131554658
 21
-1.558313987305715
 31
0
  0
LINE
  8
0
 10
-0.5119424308584457
 20
-1.55741391997248
 30
0
 11
-0.5130425131554658
 21
-1.55741391997248
 31
0
  0
LINE
  8
0
 10
-0.5119424308584457
 20
-1.558313987305715
 30
0
 11
-0.5119424308584457
 21
-1.55741391997248
 31
0
  0
LINE
  8
0
 10
-0.5130425131554658
 20
-1.558313987305715
 30
0
 11
-0.5119424308584457
 21
-1.558313987305715
 31
0
  0
LINE
  8
0
 10
-0.5136667149249369
 20
-1.556808083857359
 30
0
 11
-0.5136667149249369
 21
-1.558968083857362
 31
0
  0
LINE
  8
0
 10
-0.511506714924937
 20
-1.556808083857359
 30
0
 11
-0.5136667149249369
 21
-1.556808083857359
 31
0
  0
LINE
  8
0
 10
-0.511506714924937
 20
-1.558968083857362
 30
0
 11
-0.511506714924937
 21
-1.556808083857359
 31
0
  0
LINE
  8
0
 10
-0.5136667149249369
 20
-1.558968083857362
 30
0
 11
-0.511506714924937
 21
-1.558968083857362
 31
0
  0
LINE
  8
0
 10
-0.3495067149249372
 20
-1.468900362609151
 30
0
 11
-0.3895115112162857
 21
-1.558968083857362
 31
0
  0
LINE
  8
0
 10
-0.397915756594597
 20
-1.468900362609151
 30
0
 11
-0.3495067149249372
 21
-1.468900362609151
 31
0
  0
LINE
  8
0
 10
-0.397915756594597
 20
-1.478317668950541
 30
0
 11
-0.397915756594597
 21
-1.468900362609151
 31
0
  0
LINE
  8
0
 10
-0.3171889555575363
 20
-1.558968083857362
 30
0
 11
-0.2687863116813241
 21
-1.558968083857362
 31
0
  0
LINE
  8
0
 10
-0.2728404646500749
 20
-1.500888745473457
 30
0
 11
-0.3171889555575363
 21
-1.558968083857362
 31
0
  0
LINE
  8
0
 10
-0.2685067149249371
 20
-1.491242657375266
 30
0
 11
-0.2728404646500749
 21
-1.500888745473457
 31
0
  0
LINE
  8
0
 10
-0.2685067149249371
 20
-1.482854754681167
 30
0
 11
-0.2685067149249371
 21
-1.491242657375266
 31
0
  0
LINE
  8
0
 10
-0.2727006662718741
 20
-1.475864835769352
 30
0
 11
-0.2685067149249371
 21
-1.482854754681167
 31
0
  0
LINE
  8
0
 10
-0.2785721981577553
 20
-1.471251489287854
 30
0
 11
-0.2727006662718741
 21
-1.475864835769352
 31
0
  0
LINE
  8
0
 10
-0.286820302473705
 20
-1.468900362609151
 30
0
 11
-0.2785721981577553
 21
-1.471251489287854
 31
0
  0
LINE
  8
0
 10
-0.2989827613800261
 20
-1.468900362609151
 30
0
 11
-0.286820302473705
 21
-1.468900362609151
 31
0
  0
LINE
  8
0
 10
-0.3075104624523656
 20
-1.471531086044262
 30
0
 11
-0.2989827613800261
 21
-1.468900362609151
 31
0
  0
LINE
  8
0
 10
-0.3125432040687255
 20
-1.476004634147851
 30
0
 11
-0.3075104624523656
 21
-1.471531086044262
 31
0
  0
LINE
  8
0
 10
-0.3171889555575363
 20
-1.48299455305936
 30
0
 11
-0.3125432040687255
 21
-1.476004634147851
 31
0
  0
LINE
  8
0
 10
-0.1375627438989467
 20
-1.558968083857362
 30
0
 11
-0.1065067149249372
 21
-1.558968083857362
 31
0
  0
LINE
  8
0
 10
-0.1448616262839642
 20
-1.557016820538482
 30
0
 11
-0.1375627438989467
 21
-1.558968083857362
 31
0
  0
LINE
  8
0
 10
-0.1491550865109857
 20
-1.554583859743412
 30
0
 11
-0.1448616262839642
 21
-1.557016820538482
 31
0
  0
LINE
  8
0
 10
-0.1531623160569543
 20
-1.550290399516408
 30
0
 11
-0.1491550865109857
 21
-1.554583859743412
 31
0
  0
LINE
  8
0
 10
-0.1551659308299459
 20
-1.541131017698913
 30
0
 11
-0.1531623160569543
 21
-1.550290399516408
 31
0
  0
LINE
  8
0
 10
-0.1551659308299459
 20
-1.513366641564759
 30
0
 11
-0.1551659308299459
 21
-1.541131017698913
 31
0
  0
LINE
  8
0
 10
-0.1533054313989669
 20
-1.50477972111108
 30
0
 11
-0.1551659308299459
 21
-1.513366641564759
 31
0
  0
LINE
  8
0
 10
-0.1492982018529146
 20
-1.499913799520566
 30
0
 11
-0.1533054313989669
 21
-1.50477972111108
 31
0
  0
LINE
  8
0
 10
-0.1448616262839642
 20
-1.497767069407077
 30
0
 11
-0.1492982018529146
 21
-1.499913799520566
 31
0
  0
LINE
  8
0
 10
-0.1369902825339558
 20
-1.495825231273083
 30
0
 11
-0.1448616262839642
 21
-1.497767069407077
 31
0
  0
LINE
  8
0
 10
-0.1066498302638974
 20
-1.495825231273083
 30
0
 11
-0.1369902825339558
 21
-1.495825231273083
 31
0
  0
LINE
  8
0
 10
-0.05453136597090634
 20
-1.558968083857362
 30
0
 11
-0.05453136597090634
 21
-1.495825231273083
 31
0
  0
LINE
  8
0
 10
-0.02550671492493711
 20
-1.506722221003706
 30
0
 11
-0.02550671492493711
 21
-1.558968083857362
 31
0
  0
LINE
  8
0
 10
-0.02875422832896585
 20
-1.501647981310408
 30
0
 11
-0.02550671492493711
 21
-1.506722221003706
 31
0
  0
LINE
  8
0
 10
-0.03200174173290725
 20
-1.497994528731193
 30
0
 11
-0.02875422832896585
 21
-1.501647981310408
 31
0
  0
LINE
  8
0
 10
-0.03809082936693359
 20
-1.495825231273083
 30
0
 11
-0.03200174173290725
 21
-1.497994528731193
 31
0
  0
LINE
  8
0
 10
-0.08213522990493585
 20
-1.495825231273083
 30
0
 11
-0.03809082936693359
 21
-1.495825231273083
 31
0
  0
LINE
  8
0
 10
-0.08294710825596485
 20
-1.558968083857362
 30
0
 11
-0.08213522990493585
 21
-1.495825231273083
 31
0
  0
LINE
  8
0
 10
0.1187469828050226
 20
-1.495825231273083
 30
0
 11
0.08753416685693355
 21
-1.495825231273083
 31
0
  0
LINE
  8
0
 10
0.1257596345089842
 20
-1.498196415429774
 30
0
 11
0.1187469828050226
 21
-1.495825231273083
 31
0
  0
LINE
  8
0
 10
0.1301962100780256
 20
-1.50048626088412
 30
0
 11
0.1257596345089842
 21
-1.498196415429774
 31
0
  0
LINE
  8
0
 10
0.1334878629169826
 20
-1.504636605770268
 30
0
 11
0.1301962100780256
 21
-1.50048626088412
 31
0
  0
LINE
  8
0
 10
0.1364932850750629
 20
-1.513509756905878
 30
0
 11
0.1334878629169826
 21
-1.504636605770268
 31
0
  0
LINE
  8
0
 10
0.1364932850750629
 20
-1.540987902358101
 30
0
 11
0.1364932850750629
 21
-1.513509756905878
 31
0
  0
LINE
  8
0
 10
0.1344896703049644
 20
-1.550004168834784
 30
0
 11
0.1364932850750629
 21
-1.540987902358101
 31
0
  0
LINE
  8
0
 10
0.1296237487130239
 20
-1.554297629061766
 30
0
 11
0.1344896703049644
 21
-1.550004168834784
 31
0
  0
LINE
  8
0
 10
0.126332095873975
 20
-1.55658747451609
 30
0
 11
0.1296237487130239
 21
-1.554297629061766
 31
0
  0
LINE
  8
0
 10
0.1181745214399453
 20
-1.558968083857362
 30
0
 11
0.126332095873975
 21
-1.55658747451609
 31
0
  0
LINE
  8
0
 10
0.08783406916997409
 20
-1.558968083857362
 30
0
 11
0.1181745214399453
 21
-1.558968083857362
 31
0
  0
LINE
  8
0
 10
0.0874047231469849
 20
-1.468571539864061
 30
0
 11
0.08783406916997409
 21
-1.558968083857362
 31
0
  0
LINE
  8
0
 10
0.2174932850750628
 20
-1.527248829631695
 30
0
 11
0.1689771845091054
 21
-1.527391944972442
 31
0
  0
LINE
  8
0
 10
0.2174932850750628
 20
-1.513652872246384
 30
0
 11
0.2174932850750628
 21
-1.527248829631695
 31
0
  0
LINE
  8
0
 10
0.2159190163251441
 20
-1.505209067133473
 30
0
 11
0.2174932850750628
 21
-1.513652872246384
 31
0
  0
LINE
  8
0
 10
0.2119117867791828
 20
-1.500915606906491
 30
0
 11
0.2159190163251441
 21
-1.505209067133473
 31
0
  0
LINE
  8
0
 10
0.2070458651901236
 20
-1.497767069406814
 30
0
 11
0.2119117867791828
 21
-1.500915606906491
 31
0
  0
LINE
  8
0
 10
0.1996038674630955
 20
-1.495825231273083
 30
0
 11
0.2070458651901236
 21
-1.497767069406814
 31
0
  0
LINE
  8
0
 10
0.1870097174631629
 20
-1.495825231273083
 30
0
 11
0.1996038674630955
 21
-1.495825231273083
 31
0
  0
LINE
  8
0
 10
0.1791383737131546
 20
-1.497767069406814
 30
0
 11
0.1870097174631629
 21
-1.495825231273083
 31
0
  0
LINE
  8
0
 10
0.1752742595091149
 20
-1.500629376224605
 30
0
 11
0.1791383737131546
 21
-1.497767069406814
 31
0
  0
LINE
  8
0
 10
0.1714101453051553
 20
-1.504350375088054
 30
0
 11
0.1752742595091149
 21
-1.500629376224605
 31
0
  0
LINE
  8
0
 10
0.1689771845091054
 20
-1.513795987587196
 30
0
 11
0.1714101453051553
 21
-1.504350375088054
 31
0
  0
LINE
  8
0
 10
0.1689771845091054
 20
-1.540415440994308
 30
0
 11
0.1689771845091054
 21
-1.513795987587196
 31
0
  0
LINE
  8
0
 10
0.1716963759890933
 20
-1.549574822811758
 30
0
 11
0.1689771845091054
 21
-1.540415440994308
 31
0
  0
LINE
  8
0
 10
0.1744155674661124
 20
-1.553868283038521
 30
0
 11
0.1716963759890933
 21
-1.549574822811758
 31
0
  0
LINE
  8
0
 10
0.1792814890550845
 20
-1.556587474515457
 30
0
 11
0.1744155674661124
 21
-1.553868283038521
 31
0
  0
LINE
  8
0
 10
0.1875821788280736
 20
-1.558968083857362
 30
0
 11
0.1792814890550845
 21
-1.556587474515457
 31
0
  0
LINE
  8
0
 10
0.2174932850750628
 20
-1.558968083857362
 30
0
 11
0.1875821788280736
 21
-1.558968083857362
 31
0
  0
LINE
  8
0
 10
0.2440736108210149
 20
-1.558968083857362
 30
0
 11
0.2440736108210149
 21
-1.495825231273083
 31
0
  0
LINE
  8
0
 10
0.2444932850750628
 20
-1.468761746101721
 30
0
 11
0.2444932850750628
 21
-1.473518054297259
 31
0
  0
LINE
  8
0
 10
0.3981893863498954
 20
-1.473456143704671
 30
0
 11
0.4038710012669326
 21
-1.477935878542921
 31
0
  0
LINE
  8
0
 10
0.3927262950836448
 20
-1.471598692673853
 30
0
 11
0.3981893863498954
 21
-1.473456143704671
 31
0
  0
LINE
  8
0
 10
0.3820186362011337
 20
-1.468900362609151
 30
0
 11
0.3927262950836448
 21
-1.471598692673853
 31
0
  0
LINE
  8
0
 10
0.3738239993015342
 20
-1.468900362609151
 30
0
 11
0.3820186362011337
 21
-1.468900362609151
 31
0
  0
LINE
  8
0
 10
0.3599477474846354
 20
-1.473565405529821
 30
0
 11
0.3738239993015342
 21
-1.468900362609151
 31
0
  0
LINE
  8
0
 10
0.3533920379648325
 20
-1.478154402193656
 30
0
 11
0.3599477474846354
 21
-1.473565405529821
 31
0
  0
LINE
  8
0
 10
0.3517531105850357
 20
-1.484928635364151
 30
0
 11
0.3533920379648325
 21
-1.478154402193656
 31
0
  0
LINE
  8
0
 10
0.3514253251091251
 20
-1.489954679329369
 30
0
 11
0.3517531105850357
 21
-1.484928635364151
 31
0
  0
LINE
  8
0
 10
0.3536105616155266
 20
-1.496182603372937
 30
0
 11
0.3514253251091251
 21
-1.489954679329369
 31
0
  0
LINE
  8
0
 10
0.3589643910566555
 20
-1.500006767259437
 30
0
 11
0.3536105616155266
 21
-1.496182603372937
 31
0
  0
LINE
  8
0
 10
0.3939281751620547
 20
-1.516505302884157
 30
0
 11
0.3589643910566555
 21
-1.500006767259437
 31
0
  0
LINE
  8
0
 10
0.3998283137297841
 20
-1.520875775897563
 30
0
 11
0.3939281751620547
 21
-1.516505302884157
 31
0
  0
LINE
  8
0
 10
0.4039802630924132
 20
-1.527431485417058
 30
0
 11
0.3998283137297841
 21
-1.520875775897563
 31
0
  0
LINE
  8
0
 10
0.4059469759484638
 20
-1.533987194936861
 30
0
 11
0.4039802630924132
 21
-1.527431485417058
 31
0
  0
LINE
  8
0
 10
0.4064932850750629
 20
-1.539231762552772
 30
0
 11
0.4059469759484638
 21
-1.533987194936861
 31
0
  0
LINE
  8
0
 10
0.4041987867431056
 20
-1.545131901120454
 30
0
 11
0.4064932850750629
 21
-1.539231762552772
 31
0
  0
LINE
  8
0
 10
0.4004838846818639
 20
-1.552233919766855
 30
0
 11
0.4041987867431056
 21
-1.545131901120454
 31
0
  0
LINE
  8
0
 10
0.3943652224634434
 20
-1.556604392779954
 30
0
 11
0.4004838846818639
 21
-1.552233919766855
 31
0
  0
LINE
  8
0
 10
0.3845316581837833
 20
-1.558968083857362
 30
0
 11
0.3943652224634434
 21
-1.556604392779954
 31
0
  0
LINE
  8
0
 10
0.3715295009696528
 20
-1.558968083857362
 30
0
 11
0.3845316581837833
 21
-1.558968083857362
 31
0
  0
LINE
  8
0
 10
0.3620237221658135
 20
-1.556822916430669
 30
0
 11
0.3715295009696528
 21
-1.558968083857362
 31
0
  0
LINE
  8
0
 10
0.3536105616155266
 20
-1.552561705242761
 30
0
 11
0.3620237221658135
 21
-1.556822916430669
 31
0
  0
LINE
  8
0
 10
0.3493757906225256
 20
-1.547754184928256
 30
0
 11
0.3536105616155266
 21
-1.552561705242761
 31
0
  0
LINE
  8
0
 10
0.434491052252033
 20
-1.558968083857362
 30
0
 11
0.434491052252033
 21
-1.468692062437374
 31
0
  0
LINE
  8
0
 10
0.4269628260349855
 20
-1.495825231273083
 30
0
 11
0.4469932850750628
 21
-1.495825231273083
 31
0
  0
LINE
  8
0
 10
0.527993285075063
 20
-1.527248829631695
 30
0
 11
0.4794771845091055
 21
-1.527391944972442
 31
0
  0
LINE
  8
0
 10
0.527993285075063
 20
-1.513652872246384
 30
0
 11
0.527993285075063
 21
-1.527248829631695
 31
0
  0
LINE
  8
0
 10
0.5264190163251442
 20
-1.505209067133473
 30
0
 11
0.527993285075063
 21
-1.513652872246384
 31
0
  0
LINE
  8
0
 10
0.5224117867791829
 20
-1.500915606906491
 30
0
 11
0.5264190163251442
 21
-1.505209067133473
 31
0
  0
LINE
  8
0
 10
0.5175458651901245
 20
-1.497767069406814
 30
0
 11
0.5224117867791829
 21
-1.500915606906491
 31
0
  0
LINE
  8
0
 10
0.5101038674630946
 20
-1.495825231273083
 30
0
 11
0.5175458651901245
 21
-1.497767069406814
 31
0
  0
LINE
  8
0
 10
0.4975097174631629
 20
-1.495825231273083
 30
0
 11
0.5101038674630946
 21
-1.495825231273083
 31
0
  0
LINE
  8
0
 10
0.4896383737131545
 20
-1.497767069406814
 30
0
 11
0.4975097174631629
 21
-1.495825231273083
 31
0
  0
LINE
  8
0
 10
0.485774259509115
 20
-1.500629376224605
 30
0
 11
0.4896383737131545
 21
-1.497767069406814
 31
0
  0
LINE
  8
0
 10
0.4819101453051552
 20
-1.504350375088054
 30
0
 11
0.485774259509115
 21
-1.500629376224605
 31
0
  0
LINE
  8
0
 10
0.4794771845091055
 20
-1.513795987587196
 30
0
 11
0.4819101453051552
 21
-1.504350375088054
 31
0
  0
LINE
  8
0
 10
0.4794771845091055
 20
-1.540415440994308
 30
0
 11
0.4794771845091055
 21
-1.513795987587196
 31
0
  0
LINE
  8
0
 10
0.4821963759890933
 20
-1.549574822811758
 30
0
 11
0.4794771845091055
 21
-1.540415440994308
 31
0
  0
LINE
  8
0
 10
0.4849155674661125
 20
-1.553868283038521
 30
0
 11
0.4821963759890933
 21
-1.549574822811758
 31
0
  0
LINE
  8
0
 10
0.4897814890550835
 20
-1.556587474515457
 30
0
 11
0.4849155674661125
 21
-1.553868283038521
 31
0
  0
LINE
  8
0
 10
0.4980821788280737
 20
-1.558968083857362
 30
0
 11
0.4897814890550835
 21
-1.556587474515457
 31
0
  0
LINE
  8
0
 10
0.527993285075063
 20
-1.558968083857362
 30
0
 11
0.4980821788280737
 21
-1.558968083857362
 31
0
  0
LINE
  8
0
 10
0.554573610821015
 20
-1.558968083857362
 30
0
 11
0.554573610821015
 21
-1.495825231273083
 31
0
  0
LINE
  8
0
 10
0.554993285075063
 20
-1.468761746101721
 30
0
 11
0.554993285075063
 21
-1.473518054297259
 31
0
  0
LINE
  8
0
 10
0.6355873458980641
 20
-1.507534099354691
 30
0
 11
0.635993285075063
 21
-1.558968083857362
 31
0
  0
LINE
  8
0
 10
0.632948741258093
 20
-1.502865798836864
 30
0
 11
0.6355873458980641
 21
-1.507534099354691
 31
0
  0
LINE
  8
0
 10
0.6294982582670927
 20
-1.499009376669783
 30
0
 11
0.632948741258093
 21
-1.502865798836864
 31
0
  0
LINE
  8
0
 10
0.6230032314590354
 20
-1.495825231273083
 30
0
 11
0.6294982582670927
 21
-1.499009376669783
 31
0
  0
LINE
  8
0
 10
0.5870776144310658
 20
-1.495825231273083
 30
0
 11
0.6230032314590354
 21
-1.495825231273083
 31
0
  0
LINE
  8
0
 10
0.5864687056670956
 20
-1.558968083857362
 30
0
 11
0.5870776144310658
 21
-1.495825231273083
 31
0
  0
LINE
  8
0
 10
0.7121537110790632
 20
-1.50256908041238
 30
0
 11
0.7164555546320953
 21
-1.509425143573666
 31
0
  0
LINE
  8
0
 10
0.7061042435840936
 20
-1.497998371637913
 30
0
 11
0.7121537110790632
 21
-1.50256908041238
 31
0
  0
LINE
  8
0
 10
0.696559528202084
 20
-1.495825231273083
 30
0
 11
0.7061042435840936
 21
-1.497998371637913
 31
0
  0
LINE
  8
0
 10
0.6888968693750539
 20
-1.495825231273083
 30
0
 11
0.696559528202084
 21
-1.495825231273083
 31
0
  0
LINE
  8
0
 10
0.6797554518261132
 20
-1.497998371637913
 30
0
 11
0.6888968693750539
 21
-1.495825231273083
 31
0
  0
LINE
  8
0
 10
0.6746470126071036
 20
-1.502300215190261
 30
0
 11
0.6797554518261132
 21
-1.497998371637913
 31
0
  0
LINE
  8
0
 10
0.6702107364441036
 20
-1.506602058742696
 30
0
 11
0.6746470126071036
 21
-1.502300215190261
 31
0
  0
LINE
  8
0
 10
0.6677909494460655
 20
-1.511172767516858
 30
0
 11
0.6702107364441036
 21
-1.506602058742696
 31
0
  0
LINE
  8
0
 10
0.6675220842230448
 20
-1.516146774124426
 30
0
 11
0.6677909494460655
 21
-1.511172767516858
 31
0
  0
LINE
  8
0
 10
0.669673006001136
 20
-1.520851915509811
 30
0
 11
0.6675220842230448
 21
-1.516146774124426
 31
0
  0
LINE
  8
0
 10
0.6737059843310528
 20
-1.522733972063855
 30
0
 11
0.669673006001136
 21
-1.520851915509811
 31
0
  0
LINE
  8
0
 10
0.7098683566910949
 20
-1.532413120056481
 30
0
 11
0.6737059843310528
 21
-1.522733972063855
 31
0
  0
LINE
  8
0
 10
0.7140357676341337
 20
-1.533891878777576
 30
0
 11
0.7098683566910949
 21
-1.532413120056481
 31
0
  0
LINE
  8
0
 10
0.716993285075063
 20
-1.539000317995997
 30
0
 11
0.7140357676341337
 21
-1.533891878777576
 31
0
  0
LINE
  8
0
 10
0.7163211220190533
 20
-1.543302161548367
 30
0
 11
0.716993285075063
 21
-1.539000317995997
 31
0
  0
LINE
  8
0
 10
0.7147079306870837
 20
-1.54773843771172
 30
0
 11
0.7163211220190533
 21
-1.543302161548367
 31
0
  0
LINE
  8
0
 10
0.7112126828031032
 20
-1.551905848653172
 30
0
 11
0.7147079306870837
 21
-1.54773843771172
 31
0
  0
LINE
  8
0
 10
0.7048943500851128
 20
-1.556879855260413
 30
0
 11
0.7112126828031032
 21
-1.551905848653172
 31
0
  0
LINE
  8
0
 10
0.6970972586451353
 20
-1.558968083857362
 30
0
 11
0.7048943500851128
 21
-1.556879855260413
 31
0
  0
LINE
  8
0
 10
0.6878214084861429
 20
-1.558968083857362
 30
0
 11
0.6970972586451353
 21
-1.558968083857362
 31
0
  0
LINE
  8
0
 10
0.6782766931041225
 20
-1.557014287871591
 30
0
 11
0.6878214084861429
 21
-1.558968083857362
 31
0
  0
LINE
  8
0
 10
0.6722272256090657
 20
-1.552578011708282
 30
0
 11
0.6782766931041225
 21
-1.557014287871591
 31
0
  0
LINE
  8
0
 10
0.6677909494460655
 20
-1.545587515935513
 30
0
 11
0.6722272256090657
 21
-1.552578011708282
 31
0
  0
LINE
  8
0
 10
0.7449910522520331
 20
-1.558968083857362
 30
0
 11
0.7449910522520331
 21
-1.468692062437374
 31
0
  0
LINE
  8
0
 10
0.7374628260349855
 20
-1.495825231273083
 30
0
 11
0.757493285075063
 21
-1.495825231273083
 31
0
  0
LINE
  8
0
 10
0.8076496663970429
 20
-1.558968083857362
 30
0
 11
0.838493285075063
 21
-1.558968083857362
 31
0
  0
LINE
  8
0
 10
0.8004173696060934
 20
-1.556460281602994
 30
0
 11
0.8076496663970429
 21
-1.558968083857362
 31
0
  0
LINE
  8
0
 10
0.7953122189270835
 20
-1.554758564710376
 30
0
 11
0.8004173696060934
 21
-1.556460281602994
 31
0
  0
LINE
  8
0
 10
0.7921214997560638
 20
-1.550504272479499
 30
0
 11
0.7953122189270835
 21
-1.554758564710376
 31
0
  0
LINE
  8
0
 10
0.7895689244150745
 20
-1.541357544182559
 30
0
 11
0.7921214997560638
 21
-1.550504272479499
 31
0
  0
LINE
  8
0
 10
0.7895689244150745
 20
-1.495825231273083
 30
0
 11
0.7895689244150745
 21
-1.541357544182559
 31
0
  0
LINE
  8
0
 10
0.838493285075063
 20
-1.495825231273083
 30
0
 11
0.838493285075063
 21
-1.558968083857362
 31
0
  0
LINE
  8
0
 10
0.8545205617820358
 20
-1.500343145542959
 30
0
 11
0.8785639390520845
 21
-1.500343145542959
 31
0
  0
LINE
  8
0
 10
0.8626781362131043
 20
-1.484314227362315
 30
0
 11
0.8628212515551132
 21
-1.558968083857362
 31
0
  0
LINE
  8
0
 10
0.8649679816670542
 20
-1.475870422249426
 30
0
 11
0.8626781362131043
 21
-1.484314227362315
 31
0
  0
LINE
  8
0
 10
0.8691183265551229
 20
-1.470718269977267
 30
0
 11
0.8649679816670542
 21
-1.475870422249426
 31
0
  0
LINE
  8
0
 10
0.8741273634860954
 20
-1.469000885886473
 30
0
 11
0.8691183265551229
 21
-1.470718269977267
 31
0
  0
LINE
  8
0
 10
0.878993285075063
 20
-1.469144001227286
 30
0
 11
0.8741273634860954
 21
-1.469000885886473
 31
0
  0
LINE
  8
0
 10
0.9599932850750631
 20
-1.527248829631695
 30
0
 11
0.9114771845091054
 21
-1.527391944972442
 31
0
  0
LINE
  8
0
 10
0.9599932850750631
 20
-1.513652872246384
 30
0
 11
0.9599932850750631
 21
-1.527248829631695
 31
0
  0
LINE
  8
0
 10
0.9584190163251443
 20
-1.505209067133473
 30
0
 11
0.9599932850750631
 21
-1.513652872246384
 31
0
  0
LINE
  8
0
 10
0.9544117867791829
 20
-1.500915606906491
 30
0
 11
0.9584190163251443
 21
-1.505209067133473
 31
0
  0
LINE
  8
0
 10
0.9495458651901245
 20
-1.497767069406814
 30
0
 11
0.9544117867791829
 21
-1.500915606906491
 31
0
  0
LINE
  8
0
 10
0.9421038674630947
 20
-1.495825231273083
 30
0
 11
0.9495458651901245
 21
-1.497767069406814
 31
0
  0
LINE
  8
0
 10
0.9295097174631629
 20
-1.495825231273083
 30
0
 11
0.9421038674630947
 21
-1.495825231273083
 31
0
  0
LINE
  8
0
 10
0.9216383737131545
 20
-1.497767069406814
 30
0
 11
0.9295097174631629
 21
-1.495825231273083
 31
0
  0
LINE
  8
0
 10
0.917774259509115
 20
-1.500629376224605
 30
0
 11
0.9216383737131545
 21
-1.497767069406814
 31
0
  0
LINE
  8
0
 10
0.9139101453051554
 20
-1.504350375088054
 30
0
 11
0.917774259509115
 21
-1.500629376224605
 31
0
  0
LINE
  8
0
 10
0.9114771845091054
 20
-1.513795987587196
 30
0
 11
0.9139101453051554
 21
-1.504350375088054
 31
0
  0
LINE
  8
0
 10
0.9114771845091054
 20
-1.540415440994308
 30
0
 11
0.9114771845091054
 21
-1.513795987587196
 31
0
  0
LINE
  8
0
 10
0.9141963759890933
 20
-1.549574822811758
 30
0
 11
0.9114771845091054
 21
-1.540415440994308
 31
0
  0
LINE
  8
0
 10
0.9169155674661126
 20
-1.553868283038521
 30
0
 11
0.9141963759890933
 21
-1.549574822811758
 31
0
  0
LINE
  8
0
 10
0.9217814890550835
 20
-1.556587474515457
 30
0
 11
0.9169155674661126
 21
-1.553868283038521
 31
0
  0
LINE
  8
0
 10
0.9300821788280736
 20
-1.558968083857362
 30
0
 11
0.9217814890550835
 21
-1.556587474515457
 31
0
  0
LINE
  8
0
 10
0.9599932850750631
 20
-1.558968083857362
 30
0
 11
0.9300821788280736
 21
-1.558968083857362
 31
0
  0
LINE
  8
0
 10
1.040587345898065
 20
-1.507534099354691
 30
0
 11
1.040993285075064
 21
-1.558968083857362
 31
0
  0
LINE
  8
0
 10
1.037948741258093
 20
-1.502865798836864
 30
0
 11
1.040587345898065
 21
-1.507534099354691
 31
0
  0
LINE
  8
0
 10
1.034498258267094
 20
-1.499009376669783
 30
0
 11
1.037948741258093
 21
-1.502865798836864
 31
0
  0
LINE
  8
0
 10
1.028003231459035
 20
-1.495825231273083
 30
0
 11
1.034498258267094
 21
-1.499009376669783
 31
0
  0
LINE
  8
0
 10
0.9920776144310658
 20
-1.495825231273083
 30
0
 11
1.028003231459035
 21
-1.495825231273083
 31
0
  0
LINE
  8
0
 10
0.9914687056670957
 20
-1.558968083857362
 30
0
 11
0.9920776144310658
 21
-1.495825231273083
 31
0
  0
LINE
  8
0
 10
-1.000257998573658
 20
-1.424034946434391
 30
0
 11
-1.000257998573658
 21
-1.333967225186158
 31
0
  0
LINE
  8
0
 10
-0.9435067149249408
 20
-1.333967225186158
 30
0
 11
-0.9435067149249408
 21
-1.424034946434391
 31
0
  0
LINE
  8
0
 10
-0.9435067149249408
 20
-1.424034946434391
 30
0
 11
-1.000257998573658
 21
-1.333967225186158
 31
0
  0
LINE
  8
0
 10
-0.9116315559865108
 20
-1.424034946434391
 30
0
 11
-0.8625067149249407
 21
-1.424034946434391
 31
0
  0
LINE
  8
0
 10
-0.9116315559865108
 20
-1.33396722518618
 30
0
 11
-0.9116315559865108
 21
-1.424034946434391
 31
0
  0
LINE
  8
0
 10
-0.8342940723209794
 20
-1.374914606476284
 30
0
 11
-0.8342940723209794
 21
-1.33396722518618
 31
0
  0
LINE
  8
0
 10
-0.8342940723209794
 20
-1.374914606476284
 30
0
 11
-0.8019157488242782
 21
-1.374914606476284
 31
0
  0
LINE
  8
0
 10
-0.7986173191031876
 20
-1.424034946434391
 30
0
 11
-0.8342940723209794
 21
-1.424034946434391
 31
0
  0
LINE
  8
0
 10
-0.7891343336549799
 20
-1.419649559568994
 30
0
 11
-0.7986173191031876
 21
-1.424034946434391
 31
0
  0
LINE
  8
0
 10
-0.7852174483611088
 20
-1.415526522417388
 30
0
 11
-0.7891343336549799
 21
-1.419649559568994
 31
0
  0
LINE
  8
0
 10
-0.7815067149249407
 20
-1.406661992541983
 30
0
 11
-0.7852174483611088
 21
-1.415526522417388
 31
0
  0
LINE
  8
0
 10
-0.7817128667822982
 20
-1.3944990329452
 30
0
 11
-0.7815067149249407
 21
-1.406661992541983
 31
0
  0
LINE
  8
0
 10
-0.7854236002184698
 20
-1.383985288209401
 30
0
 11
-0.7817128667822982
 21
-1.3944990329452
 31
0
  0
LINE
  8
0
 10
-0.7903712448002808
 20
-1.378831491769898
 30
0
 11
-0.7854236002184698
 21
-1.383985288209401
 31
0
  0
LINE
  8
0
 10
-0.7989301012319993
 20
-1.373720347439347
 30
0
 11
-0.7903712448002808
 21
-1.378831491769898
 31
0
  0
LINE
  8
0
 10
-0.7989301012319993
 20
-1.373720347439347
 30
0
 11
-0.8019157488242782
 21
-1.374914606476284
 31
0
  0
LINE
  8
0
 10
-0.8019157488242782
 20
-1.374914606476284
 30
0
 11
-0.7989301012319993
 21
-1.373720347439347
 31
0
  0
LINE
  8
0
 10
-0.79573119309717
 20
-1.3724407841854
 30
0
 11
-0.7989301012319993
 21
-1.373720347439347
 31
0
  0
LINE
  8
0
 10
-0.7899589410852086
 20
-1.368523898891481
 30
0
 11
-0.79573119309717
 21
-1.3724407841854
 31
0
  0
LINE
  8
0
 10
-0.7852174483611088
 20
-1.359453217158388
 30
0
 11
-0.7899589410852086
 21
-1.368523898891481
 31
0
  0
LINE
  8
0
 10
-0.7858359039338901
 20
-1.351000990998054
 30
0
 11
-0.7852174483611088
 21
-1.359453217158388
 31
0
  0
LINE
  8
0
 10
-0.7878974225094209
 20
-1.342961068552898
 30
0
 11
-0.7858359039338901
 21
-1.351000990998054
 31
0
  0
LINE
  8
0
 10
-0.7938758263790815
 20
-1.336570360968095
 30
0
 11
-0.7878974225094209
 21
-1.342961068552898
 31
0
  0
LINE
  8
0
 10
-0.8039772673998087
 20
-1.33396722518618
 30
0
 11
-0.7938758263790815
 21
-1.336570360968095
 31
0
  0
LINE
  8
0
 10
-0.8342940723209794
 20
-1.33396722518618
 30
0
 11
-0.8039772673998087
 21
-1.33396722518618
 31
0
  0
LINE
  8
0
 10
-0.8342940723209794
 20
-1.424034946434391
 30
0
 11
-0.8342940723209794
 21
-1.374914606476284
 31
0
  0
LINE
  8
0
 10
-0.6505627438989504
 20
-1.424034946434391
 30
0
 11
-0.6195067149249407
 21
-1.424034946434391
 31
0
  0
LINE
  8
0
 10
-0.6578616262839714
 20
-1.422083683115513
 30
0
 11
-0.6505627438989504
 21
-1.424034946434391
 31
0
  0
LINE
  8
0
 10
-0.6621550865109893
 20
-1.419650722320441
 30
0
 11
-0.6578616262839714
 21
-1.422083683115513
 31
0
  0
LINE
  8
0
 10
-0.6661623160569616
 20
-1.415357262093437
 30
0
 11
-0.6621550865109893
 21
-1.419650722320441
 31
0
  0
LINE
  8
0
 10
-0.6681659308299486
 20
-1.406197880275942
 30
0
 11
-0.6661623160569616
 21
-1.415357262093437
 31
0
  0
LINE
  8
0
 10
-0.6681659308299486
 20
-1.378433504141788
 30
0
 11
-0.6681659308299486
 21
-1.406197880275942
 31
0
  0
LINE
  8
0
 10
-0.6663054313989716
 20
-1.369846583688111
 30
0
 11
-0.6681659308299486
 21
-1.378433504141788
 31
0
  0
LINE
  8
0
 10
-0.6622982018529183
 20
-1.364980662097597
 30
0
 11
-0.6663054313989716
 21
-1.369846583688111
 31
0
  0
LINE
  8
0
 10
-0.6578616262839714
 20
-1.362833931984106
 30
0
 11
-0.6622982018529183
 21
-1.364980662097597
 31
0
  0
LINE
  8
0
 10
-0.6499902825339605
 20
-1.360892093850113
 30
0
 11
-0.6578616262839714
 21
-1.362833931984106
 31
0
  0
LINE
  8
0
 10
-0.6196498302639011
 20
-1.360892093850113
 30
0
 11
-0.6499902825339605
 21
-1.360892093850113
 31
0
  0
LINE
  8
0
 10
-0.5424717163395291
 20
-1.408341481577207
 30
0
 11
-0.5423559861249014
 21
-1.360892093850113
 31
0
  0
LINE
  8
0
 10
-0.5465753795559276
 20
-1.417372746278839
 30
0
 11
-0.5424717163395291
 21
-1.408341481577207
 31
0
  0
LINE
  8
0
 10
-0.5524973352489796
 20
-1.421740188603096
 30
0
 11
-0.5465753795559276
 21
-1.417372746278839
 31
0
  0
LINE
  8
0
 10
-0.5607140487759608
 20
-1.424034946434391
 30
0
 11
-0.5524973352489796
 21
-1.421740188603096
 31
0
  0
LINE
  8
0
 10
-0.5727800334999411
 20
-1.424034946434391
 30
0
 11
-0.5607140487759608
 21
-1.424034946434391
 31
0
  0
LINE
  8
0
 10
-0.5809967470269185
 20
-1.421666164156911
 30
0
 11
-0.5727800334999411
 21
-1.424034946434391
 31
0
  0
LINE
  8
0
 10
-0.5871407760579387
 20
-1.417076648494318
 30
0
 11
-0.5809967470269185
 21
-1.421666164156911
 31
0
  0
LINE
  8
0
 10
-0.5909900472609525
 20
-1.408267739399841
 30
0
 11
-0.5871407760579387
 21
-1.417076648494318
 31
0
  0
LINE
  8
0
 10
-0.5910640717059796
 20
-1.376511251992293
 30
0
 11
-0.5909900472609525
 21
-1.408267739399841
 31
0
  0
LINE
  8
0
 10
-0.5869187027199696
 20
-1.367702342897815
 30
0
 11
-0.5910640717059796
 21
-1.376511251992293
 31
0
  0
LINE
  8
0
 10
-0.5809967470269185
 20
-1.363112827235224
 30
0
 11
-0.5869187027199696
 21
-1.367702342897815
 31
0
  0
LINE
  8
0
 10
-0.5726319846098814
 20
-1.360892093850113
 30
0
 11
-0.5809967470269185
 21
-1.363112827235224
 31
0
  0
LINE
  8
0
 10
-0.5423559861249014
 20
-1.360892093850113
 30
0
 11
-0.5726319846098814
 21
-1.360892093850113
 31
0
  0
LINE
  8
0
 10
-0.5425040350179188
 20
-1.421592139710726
 30
0
 11
-0.5424717163395291
 21
-1.408341481577207
 31
0
  0
LINE
  8
0
 10
-0.5404313505249193
 20
-1.424034946434391
 30
0
 11
-0.5425040350179188
 21
-1.421592139710726
 31
0
  0
LINE
  8
0
 10
-0.5385067149249407
 20
-1.424034946434391
 30
0
 11
-0.5404313505249193
 21
-1.424034946434391
 31
0
  0
LINE
  8
0
 10
-0.5130425131554694
 20
-1.42248078254951
 30
0
 11
-0.5130425131554694
 21
-1.423380849882744
 31
0
  0
LINE
  8
0
 10
-0.5119424308584491
 20
-1.42248078254951
 30
0
 11
-0.5130425131554694
 21
-1.42248078254951
 31
0
  0
LINE
  8
0
 10
-0.5119424308584491
 20
-1.423380849882744
 30
0
 11
-0.5119424308584491
 21
-1.42248078254951
 31
0
  0
LINE
  8
0
 10
-0.5130425131554694
 20
-1.423380849882744
 30
0
 11
-0.5119424308584491
 21
-1.423380849882744
 31
0
  0
LINE
  8
0
 10
-0.5136667149249406
 20
-1.421874946434388
 30
0
 11
-0.5136667149249406
 21
-1.424034946434391
 31
0
  0
LINE
  8
0
 10
-0.5115067149249407
 20
-1.421874946434388
 30
0
 11
-0.5136667149249406
 21
-1.421874946434388
 31
0
  0
LINE
  8
0
 10
-0.5115067149249407
 20
-1.424034946434391
 30
0
 11
-0.5115067149249407
 21
-1.421874946434388
 31
0
  0
LINE
  8
0
 10
-0.5136667149249406
 20
-1.424034946434391
 30
0
 11
-0.5115067149249407
 21
-1.424034946434391
 31
0
  0
LINE
  8
0
 10
-0.3495067149249408
 20
-1.33396722518618
 30
0
 11
-0.3895115112162894
 21
-1.424034946434391
 31
0
  0
LINE
  8
0
 10
-0.3979157565946006
 20
-1.33396722518618
 30
0
 11
-0.3495067149249408
 21
-1.33396722518618
 31
0
  0
LINE
  8
0
 10
-0.3979157565946006
 20
-1.34338453152757
 30
0
 11
-0.3979157565946006
 21
-1.33396722518618
 31
0
  0
LINE
  8
0
 10
-0.2869601008518111
 20
-1.424034946434391
 30
0
 11
-0.317468644185341
 21
-1.424034946434391
 31
0
  0
LINE
  8
0
 10
-0.2809487705877399
 20
-1.4215953625879
 30
0
 11
-0.2869601008518111
 21
-1.424034946434391
 31
0
  0
LINE
  8
0
 10
-0.2750772387021315
 20
-1.417261612862481
 30
0
 11
-0.2809487705877399
 21
-1.4215953625879
 31
0
  0
LINE
  8
0
 10
-0.2713026824895096
 20
-1.409712500437892
 30
0
 11
-0.2750772387021315
 21
-1.417261612862481
 31
0
  0
LINE
  8
0
 10
-0.2686465133031307
 20
-1.401883791256568
 30
0
 11
-0.2713026824895096
 21
-1.409712500437892
 31
0
  0
LINE
  8
0
 10
-0.2686465133031307
 20
-1.390000929106887
 30
0
 11
-0.2686465133031307
 21
-1.401883791256568
 31
0
  0
LINE
  8
0
 10
-0.2704638922203475
 20
-1.381892623169153
 30
0
 11
-0.2686465133031307
 21
-1.390000929106887
 31
0
  0
LINE
  8
0
 10
-0.2728404646503404
 20
-1.376859881552767
 30
0
 11
-0.2704638922203475
 21
-1.381892623169153
 31
0
  0
LINE
  8
0
 10
-0.2773140127536607
 20
-1.37210673669279
 30
0
 11
-0.2728404646503404
 21
-1.376859881552767
 31
0
  0
LINE
  8
0
 10
-0.2843039316654395
 20
-1.369730164262781
 30
0
 11
-0.2773140127536607
 21
-1.37210673669279
 31
0
  0
LINE
  8
0
 10
-0.2843039316654395
 20
-1.369730164262781
 30
0
 11
-0.3054134867790307
 21
-1.370149559397383
 31
0
  0
LINE
  8
0
 10
-0.2749374403236798
 20
-1.365955608050486
 30
0
 11
-0.2843039316654395
 21
-1.369730164262781
 31
0
  0
LINE
  8
0
 10
-0.2707434889767391
 20
-1.360783068055581
 30
0
 11
-0.2749374403236798
 21
-1.365955608050486
 31
0
  0
LINE
  8
0
 10
-0.2686465133031307
 20
-1.354492141035082
 30
0
 11
-0.2707434889767391
 21
-1.360783068055581
 31
0
  0
LINE
  8
0
 10
-0.2685067149249408
 20
-1.3468032302323
 30
0
 11
-0.2686465133031307
 21
-1.354492141035082
 31
0
  0
LINE
  8
0
 10
-0.2710230857331189
 20
-1.340791899968188
 30
0
 11
-0.2685067149249408
 21
-1.3468032302323
 31
0
  0
LINE
  8
0
 10
-0.2771742143754709
 20
-1.336737746999484
 30
0
 11
-0.2710230857331189
 21
-1.340791899968188
 31
0
  0
LINE
  8
0
 10
-0.2869601008518111
 20
-1.33396722518618
 30
0
 11
-0.2771742143754709
 21
-1.336737746999484
 31
0
  0
LINE
  8
0
 10
-0.317468644185341
 20
-1.33396722518618
 30
0
 11
-0.2869601008518111
 21
-1.33396722518618
 31
0
  0
LINE
  8
0
 10
-0.1375627438989504
 20
-1.424034946434391
 30
0
 11
-0.1065067149249407
 21
-1.424034946434391
 31
0
  0
LINE
  8
0
 10
-0.1448616262839715
 20
-1.422083683115513
 30
0
 11
-0.1375627438989504
 21
-1.424034946434391
 31
0
  0
LINE
  8
0
 10
-0.1491550865109893
 20
-1.419650722320441
 30
0
 11
-0.1448616262839715
 21
-1.422083683115513
 31
0
  0
LINE
  8
0
 10
-0.1531623160569616
 20
-1.415357262093437
 30
0
 11
-0.1491550865109893
 21
-1.419650722320441
 31
0
  0
LINE
  8
0
 10
-0.1551659308299485
 20
-1.406197880275942
 30
0
 11
-0.1531623160569616
 21
-1.415357262093437
 31
0
  0
LINE
  8
0
 10
-0.1551659308299485
 20
-1.378433504141788
 30
0
 11
-0.1551659308299485
 21
-1.406197880275942
 31
0
  0
LINE
  8
0
 10
-0.1533054313989714
 20
-1.369846583688111
 30
0
 11
-0.1551659308299485
 21
-1.378433504141788
 31
0
  0
LINE
  8
0
 10
-0.1492982018529182
 20
-1.364980662097597
 30
0
 11
-0.1533054313989714
 21
-1.369846583688111
 31
0
  0
LINE
  8
0
 10
-0.1448616262839715
 20
-1.362833931984106
 30
0
 11
-0.1492982018529182
 21
-1.364980662097597
 31
0
  0
LINE
  8
0
 10
-0.1369902825339605
 20
-1.360892093850113
 30
0
 11
-0.1448616262839715
 21
-1.362833931984106
 31
0
  0
LINE
  8
0
 10
-0.106649830263901
 20
-1.360892093850113
 30
0
 11
-0.1369902825339605
 21
-1.360892093850113
 31
0
  0
LINE
  8
0
 10
-0.05453136597090998
 20
-1.424034946434391
 30
0
 11
-0.05453136597090998
 21
-1.360892093850113
 31
0
  0
LINE
  8
0
 10
-0.02550671492494074
 20
-1.371789083580736
 30
0
 11
-0.02550671492494074
 21
-1.424034946434391
 31
0
  0
LINE
  8
0
 10
-0.02875422832896948
 20
-1.366714843887437
 30
0
 11
-0.02550671492494074
 21
-1.371789083580736
 31
0
  0
LINE
  8
0
 10
-0.03200174173291088
 20
-1.363061391308223
 30
0
 11
-0.02875422832896948
 21
-1.366714843887437
 31
0
  0
LINE
  8
0
 10
-0.03809082936693812
 20
-1.360892093850113
 30
0
 11
-0.03200174173291088
 21
-1.363061391308223
 31
0
  0
LINE
  8
0
 10
-0.08213522990493857
 20
-1.360892093850113
 30
0
 11
-0.03809082936693812
 21
-1.360892093850113
 31
0
  0
LINE
  8
0
 10
-0.0829471082559676
 20
-1.424034946434391
 30
0
 11
-0.08213522990493857
 21
-1.360892093850113
 31
0
  0
LINE
  8
0
 10
0.1187469828050199
 20
-1.360892093850113
 30
0
 11
0.08753416685693083
 21
-1.360892093850113
 31
0
  0
LINE
  8
0
 10
0.1257596345089806
 20
-1.363263278006803
 30
0
 11
0.1187469828050199
 21
-1.360892093850113
 31
0
  0
LINE
  8
0
 10
0.130196210078022
 20
-1.365553123461151
 30
0
 11
0.1257596345089806
 21
-1.363263278006803
 31
0
  0
LINE
  8
0
 10
0.1334878629169799
 20
-1.369703468347297
 30
0
 11
0.130196210078022
 21
-1.365553123461151
 31
0
  0
LINE
  8
0
 10
0.1364932850750592
 20
-1.378576619482907
 30
0
 11
0.1334878629169799
 21
-1.369703468347297
 31
0
  0
LINE
  8
0
 10
0.1364932850750592
 20
-1.40605476493513
 30
0
 11
0.1364932850750592
 21
-1.378576619482907
 31
0
  0
LINE
  8
0
 10
0.1344896703049599
 20
-1.415071031411813
 30
0
 11
0.1364932850750592
 21
-1.40605476493513
 31
0
  0
LINE
  8
0
 10
0.1296237487130202
 20
-1.419364491638795
 30
0
 11
0.1344896703049599
 21
-1.415071031411813
 31
0
  0
LINE
  8
0
 10
0.1263320958739715
 20
-1.421654337093119
 30
0
 11
0.1296237487130202
 21
-1.419364491638795
 31
0
  0
LINE
  8
0
 10
0.1181745214399416
 20
-1.424034946434391
 30
0
 11
0.1263320958739715
 21
-1.421654337093119
 31
0
  0
LINE
  8
0
 10
0.08783406916996954
 20
-1.424034946434391
 30
0
 11
0.1181745214399416
 21
-1.424034946434391
 31
0
  0
LINE
  8
0
 10
0.08740472314698126
 20
-1.333638402441089
 30
0
 11
0.08783406916996954
 21
-1.424034946434391
 31
0
  0
LINE
  8
0
 10
0.2174932850750593
 20
-1.392315692208724
 30
0
 11
0.1689771845091018
 21
-1.392458807549471
 31
0
  0
LINE
  8
0
 10
0.2174932850750593
 20
-1.378719734823413
 30
0
 11
0.2174932850750593
 21
-1.392315692208724
 31
0
  0
LINE
  8
0
 10
0.2159190163251406
 20
-1.370275929710502
 30
0
 11
0.2174932850750593
 21
-1.378719734823413
 31
0
  0
LINE
  8
0
 10
0.2119117867791793
 20
-1.365982469483522
 30
0
 11
0.2159190163251406
 21
-1.370275929710502
 31
0
  0
LINE
  8
0
 10
0.2070458651901208
 20
-1.362833931983844
 30
0
 11
0.2119117867791793
 21
-1.365982469483522
 31
0
  0
LINE
  8
0
 10
0.1996038674630908
 20
-1.360892093850113
 30
0
 11
0.2070458651901208
 21
-1.362833931983844
 31
0
  0
LINE
  8
0
 10
0.1870097174631592
 20
-1.360892093850113
 30
0
 11
0.1996038674630908
 21
-1.360892093850113
 31
0
  0
LINE
  8
0
 10
0.179138373713151
 20
-1.362833931983844
 30
0
 11
0.1870097174631592
 21
-1.360892093850113
 31
0
  0
LINE
  8
0
 10
0.1752742595091113
 20
-1.365696238801634
 30
0
 11
0.179138373713151
 21
-1.362833931983844
 31
0
  0
LINE
  8
0
 10
0.1714101453051517
 20
-1.369417237665085
 30
0
 11
0.1752742595091113
 21
-1.365696238801634
 31
0
  0
LINE
  8
0
 10
0.1689771845091018
 20
-1.378862850164225
 30
0
 11
0.1714101453051517
 21
-1.369417237665085
 31
0
  0
LINE
  8
0
 10
0.1689771845091018
 20
-1.405482303571335
 30
0
 11
0.1689771845091018
 21
-1.378862850164225
 31
0
  0
LINE
  8
0
 10
0.1716963759890896
 20
-1.414641685388789
 30
0
 11
0.1689771845091018
 21
-1.405482303571335
 31
0
  0
LINE
  8
0
 10
0.1744155674661088
 20
-1.41893514561555
 30
0
 11
0.1716963759890896
 21
-1.414641685388789
 31
0
  0
LINE
  8
0
 10
0.1792814890550799
 20
-1.421654337092486
 30
0
 11
0.1744155674661088
 21
-1.41893514561555
 31
0
  0
LINE
  8
0
 10
0.1875821788280701
 20
-1.424034946434391
 30
0
 11
0.1792814890550799
 21
-1.421654337092486
 31
0
  0
LINE
  8
0
 10
0.2174932850750593
 20
-1.424034946434391
 30
0
 11
0.1875821788280701
 21
-1.424034946434391
 31
0
  0
LINE
  8
0
 10
0.2440736108210113
 20
-1.424034946434391
 30
0
 11
0.2440736108210113
 21
-1.360892093850113
 31
0
  0
LINE
  8
0
 10
0.2444932850750593
 20
-1.333828608678751
 30
0
 11
0.2444932850750593
 21
-1.338584916874288
 31
0
  0
LINE
  8
0
 10
0.4064932850750593
 20
-1.374803101770384
 30
0
 11
0.4064932850750593
 21
-1.424034946434391
 31
0
  0
LINE
  8
0
 10
0.3496959404819318
 20
-1.374803101770384
 30
0
 11
0.3496959404819318
 21
-1.33396722518618
 31
0
  0
LINE
  8
0
 10
0.3496959404819318
 20
-1.374803101770384
 30
0
 11
0.3496959404819318
 21
-1.33396722518618
 31
0
  0
LINE
  8
0
 10
0.3496959404819318
 20
-1.374803101770384
 30
0
 11
0.4064932850750593
 21
-1.374803101770384
 31
0
  0
LINE
  8
0
 10
0.3496959404819318
 20
-1.424034946434391
 30
0
 11
0.3496959404819318
 21
-1.374803101770384
 31
0
  0
LINE
  8
0
 10
0.4064932850750593
 20
-1.33396722518618
 30
0
 11
0.4064932850750593
 21
-1.374803101770384
 31
0
  0
LINE
  8
0
 10
0.3496959404819318
 20
-1.424034946434391
 30
0
 11
0.3496959404819318
 21
-1.374803101770384
 31
0
  0
LINE
  8
0
 10
0.4492342501160711
 20
-1.421990395543299
 30
0
 11
0.4567826543121409
 21
-1.424034946434391
 31
0
  0
LINE
  8
0
 10
0.4443743186481007
 20
-1.419612131208125
 30
0
 11
0.4492342501160711
 21
-1.421990395543299
 31
0
  0
LINE
  8
0
 10
0.4404450123561509
 20
-1.415062408132007
 30
0
 11
0.4443743186481007
 21
-1.419612131208125
 31
0
  0
LINE
  8
0
 10
0.4383769564131217
 20
-1.405859559182494
 30
0
 11
0.4404450123561509
 21
-1.415062408132007
 31
0
  0
LINE
  8
0
 10
0.4383769564131217
 20
-1.378561220725287
 30
0
 11
0.4383769564131217
 21
-1.405859559182494
 31
0
  0
LINE
  8
0
 10
0.440755220747109
 20
-1.369978788559007
 30
0
 11
0.4383769564131217
 21
-1.378561220725287
 31
0
  0
LINE
  8
0
 10
0.4445811242451018
 20
-1.365635871077184
 30
0
 11
0.440755220747109
 21
-1.369978788559007
 31
0
  0
LINE
  8
0
 10
0.4489240417251095
 20
-1.363257606741705
 30
0
 11
0.4445811242451018
 21
-1.365635871077184
 31
0
  0
LINE
  8
0
 10
0.4563690431240794
 20
-1.360892093850113
 30
0
 11
0.4489240417251095
 21
-1.363257606741705
 31
0
  0
LINE
  8
0
 10
0.4685705731911294
 20
-1.360892093850113
 30
0
 11
0.4563690431240794
 21
-1.360892093850113
 31
0
  0
LINE
  8
0
 10
0.4764291857781609
 20
-1.36305080114741
 30
0
 11
0.4685705731911294
 21
-1.360892093850113
 31
0
  0
LINE
  8
0
 10
0.4806687004611595
 20
-1.365118857091315
 30
0
 11
0.4764291857781609
 21
-1.36305080114741
 31
0
  0
LINE
  8
0
 10
0.4854252291321099
 20
-1.370185594153324
 30
0
 11
0.4806687004611595
 21
-1.365118857091315
 31
0
  0
LINE
  8
0
 10
0.4872864794811103
 20
-1.378768026319604
 30
0
 11
0.4854252291321099
 21
-1.370185594153324
 31
0
  0
LINE
  8
0
 10
0.4874932850750593
 20
-1.406066364776789
 30
0
 11
0.4872864794811103
 21
-1.378768026319604
 31
0
  0
LINE
  8
0
 10
0.485218423538081
 20
-1.414752199740392
 30
0
 11
0.4874932850750593
 21
-1.406066364776789
 31
0
  0
LINE
  8
0
 10
0.4807721032580812
 20
-1.419095117222193
 30
0
 11
0.485218423538081
 21
-1.414752199740392
 31
0
  0
LINE
  8
0
 10
0.4771530053571005
 20
-1.421680187151726
 30
0
 11
0.4807721032580812
 21
-1.419095117222193
 31
0
  0
LINE
  8
0
 10
0.46908758717612
 20
-1.424034946434391
 30
0
 11
0.4771530053571005
 21
-1.421680187151726
 31
0
  0
LINE
  8
0
 10
0.4567826543121409
 20
-1.424034946434391
 30
0
 11
0.46908758717612
 21
-1.424034946434391
 31
0
  0
LINE
  8
0
 10
0.5418931800711108
 20
-1.424034946434391
 30
0
 11
0.5432335470950602
 21
-1.424034946434391
 31
0
  0
LINE
  8
0
 10
0.5381734573580288
 20
-1.421775713705184
 30
0
 11
0.5418931800711108
 21
-1.424034946434391
 31
0
  0
LINE
  8
0
 10
0.5352508180820988
 20
-1.40981946212739
 30
0
 11
0.5381734573580288
 21
-1.421775713705184
 31
0
  0
LINE
  8
0
 10
0.5355165125630702
 20
-1.334096535468097
 30
0
 11
0.5352508180820988
 21
-1.40981946212739
 31
0
  0
LINE
  8
0
 10
0.6007958590010495
 20
-1.424034946434391
 30
0
 11
0.6494932850750592
 21
-1.424034946434391
 31
0
  0
LINE
  8
0
 10
0.6489696568371111
 20
-1.360892093850113
 30
0
 11
0.6007958590010495
 21
-1.424034946434391
 31
0
  0
LINE
  8
0
 10
0.6006911333540922
 20
-1.360892093850113
 30
0
 11
0.6489696568371111
 21
-1.360892093850113
 31
0
  0
LINE
  8
0
 10
0.7256537110790596
 20
-1.36763594298941
 30
0
 11
0.7299555546320917
 21
-1.374492006150695
 31
0
  0
LINE
  8
0
 10
0.7196042435840901
 20
-1.363065234214942
 30
0
 11
0.7256537110790596
 21
-1.36763594298941
 31
0
  0
LINE
  8
0
 10
0.7100595282020804
 20
-1.360892093850113
 30
0
 11
0.7196042435840901
 21
-1.363065234214942
 31
0
  0
LINE
  8
0
 10
0.7023968693750503
 20
-1.360892093850113
 30
0
 11
0.7100595282020804
 21
-1.360892093850113
 31
0
  0
LINE
  8
0
 10
0.6932554518261095
 20
-1.363065234214942
 30
0
 11
0.7023968693750503
 21
-1.360892093850113
 31
0
  0
LINE
  8
0
 10
0.6881470126071
 20
-1.367367077767291
 30
0
 11
0.6932554518261095
 21
-1.363065234214942
 31
0
  0
LINE
  8
0
 10
0.6837107364440999
 20
-1.371668921319726
 30
0
 11
0.6881470126071
 21
-1.367367077767291
 31
0
  0
LINE
  8
0
 10
0.6812909494460619
 20
-1.376239630093887
 30
0
 11
0.6837107364440999
 21
-1.371668921319726
 31
0
  0
LINE
  8
0
 10
0.681022084223041
 20
-1.381213636701455
 30
0
 11
0.6812909494460619
 21
-1.376239630093887
 31
0
  0
LINE
  8
0
 10
0.6831730060011287
 20
-1.38591877808684
 30
0
 11
0.681022084223041
 21
-1.381213636701455
 31
0
  0
LINE
  8
0
 10
0.687205984331049
 20
-1.387800834640884
 30
0
 11
0.6831730060011287
 21
-1.38591877808684
 31
0
  0
LINE
  8
0
 10
0.7233683566910913
 20
-1.39747998263351
 30
0
 11
0.687205984331049
 21
-1.387800834640884
 31
0
  0
LINE
  8
0
 10
0.7275357676341301
 20
-1.398958741354605
 30
0
 11
0.7233683566910913
 21
-1.39747998263351
 31
0
  0
LINE
  8
0
 10
0.7304932850750592
 20
-1.404067180573026
 30
0
 11
0.7275357676341301
 21
-1.398958741354605
 31
0
  0
LINE
  8
0
 10
0.7298211220190497
 20
-1.408369024125395
 30
0
 11
0.7304932850750592
 21
-1.404067180573026
 31
0
  0
LINE
  8
0
 10
0.7282079306870801
 20
-1.412805300288749
 30
0
 11
0.7298211220190497
 21
-1.408369024125395
 31
0
  0
LINE
  8
0
 10
0.7247126828030998
 20
-1.416972711230201
 30
0
 11
0.7282079306870801
 21
-1.412805300288749
 31
0
  0
LINE
  8
0
 10
0.7183943500851092
 20
-1.421946717837442
 30
0
 11
0.7247126828030998
 21
-1.416972711230201
 31
0
  0
LINE
  8
0
 10
0.7105972586451389
 20
-1.424034946434391
 30
0
 11
0.7183943500851092
 21
-1.421946717837442
 31
0
  0
LINE
  8
0
 10
0.7013214084861394
 20
-1.424034946434391
 30
0
 11
0.7105972586451389
 21
-1.424034946434391
 31
0
  0
LINE
  8
0
 10
0.6917766931041187
 20
-1.422081150448621
 30
0
 11
0.7013214084861394
 21
-1.424034946434391
 31
0
  0
LINE
  8
0
 10
0.6857272256090619
 20
-1.417644874285312
 30
0
 11
0.6917766931041187
 21
-1.422081150448621
 31
0
  0
LINE
  8
0
 10
0.6812909494460619
 20
-1.410654378512542
 30
0
 11
0.6857272256090619
 21
-1.417644874285312
 31
0
  0
LINE
  8
0
 10
0.7584910522520295
 20
-1.424034946434391
 30
0
 11
0.7584910522520295
 21
-1.333758925014403
 31
0
  0
LINE
  8
0
 10
0.750962826034982
 20
-1.360892093850113
 30
0
 11
0.7709932850750594
 21
-1.360892093850113
 31
0
  0
LINE
  8
0
 10
0.8211496663970392
 20
-1.424034946434391
 30
0
 11
0.8519932850750592
 21
-1.424034946434391
 31
0
  0
LINE
  8
0
 10
0.81391736960609
 20
-1.421527144180023
 30
0
 11
0.8211496663970392
 21
-1.424034946434391
 31
0
  0
LINE
  8
0
 10
0.8088122189270799
 20
-1.419825427287405
 30
0
 11
0.81391736960609
 21
-1.421527144180023
 31
0
  0
LINE
  8
0
 10
0.8056214997560602
 20
-1.415571135056528
 30
0
 11
0.8088122189270799
 21
-1.419825427287405
 31
0
  0
LINE
  8
0
 10
0.8030689244150709
 20
-1.406424406759588
 30
0
 11
0.8056214997560602
 21
-1.415571135056528
 31
0
  0
LINE
  8
0
 10
0.8030689244150709
 20
-1.360892093850113
 30
0
 11
0.8030689244150709
 21
-1.406424406759588
 31
0
  0
LINE
  8
0
 10
0.8519932850750592
 20
-1.360892093850113
 30
0
 11
0.8519932850750592
 21
-1.424034946434391
 31
0
  0
LINE
  8
0
 10
0.868020561782032
 20
-1.365410008119989
 30
0
 11
0.892063939052081
 21
-1.365410008119989
 31
0
  0
LINE
  8
0
 10
0.8761781362131005
 20
-1.349381089939344
 30
0
 11
0.8763212515551096
 21
-1.424034946434391
 31
0
  0
LINE
  8
0
 10
0.8784679816670505
 20
-1.340937284826456
 30
0
 11
0.8761781362131005
 21
-1.349381089939344
 31
0
  0
LINE
  8
0
 10
0.8826183265551191
 20
-1.335785132554297
 30
0
 11
0.8784679816670505
 21
-1.340937284826456
 31
0
  0
LINE
  8
0
 10
0.8876273634860991
 20
-1.334067748463503
 30
0
 11
0.8826183265551191
 21
-1.335785132554297
 31
0
  0
LINE
  8
0
 10
0.8924932850750594
 20
-1.334210863804315
 30
0
 11
0.8876273634860991
 21
-1.334067748463503
 31
0
  0
LINE
  8
0
 10
0.9734932850750593
 20
-1.392315692208724
 30
0
 11
0.9249771845091018
 21
-1.392458807549471
 31
0
  0
LINE
  8
0
 10
0.9734932850750593
 20
-1.378719734823413
 30
0
 11
0.9734932850750593
 21
-1.392315692208724
 31
0
  0
LINE
  8
0
 10
0.9719190163251407
 20
-1.370275929710502
 30
0
 11
0.9734932850750593
 21
-1.378719734823413
 31
0
  0
LINE
  8
0
 10
0.9679117867791791
 20
-1.365982469483522
 30
0
 11
0.9719190163251407
 21
-1.370275929710502
 31
0
  0
LINE
  8
0
 10
0.9630458651901208
 20
-1.362833931983844
 30
0
 11
0.9679117867791791
 21
-1.365982469483522
 31
0
  0
LINE
  8
0
 10
0.9556038674630909
 20
-1.360892093850113
 30
0
 11
0.9630458651901208
 21
-1.362833931983844
 31
0
  0
LINE
  8
0
 10
0.9430097174631592
 20
-1.360892093850113
 30
0
 11
0.9556038674630909
 21
-1.360892093850113
 31
0
  0
LINE
  8
0
 10
0.9351383737131511
 20
-1.362833931983844
 30
0
 11
0.9430097174631592
 21
-1.360892093850113
 31
0
  0
LINE
  8
0
 10
0.9312742595091115
 20
-1.365696238801634
 30
0
 11
0.9351383737131511
 21
-1.362833931983844
 31
0
  0
LINE
  8
0
 10
0.9274101453051516
 20
-1.369417237665085
 30
0
 11
0.9312742595091115
 21
-1.365696238801634
 31
0
  0
LINE
  8
0
 10
0.9249771845091018
 20
-1.378862850164225
 30
0
 11
0.9274101453051516
 21
-1.369417237665085
 31
0
  0
LINE
  8
0
 10
0.9249771845091018
 20
-1.405482303571335
 30
0
 11
0.9249771845091018
 21
-1.378862850164225
 31
0
  0
LINE
  8
0
 10
0.9276963759890897
 20
-1.414641685388789
 30
0
 11
0.9249771845091018
 21
-1.405482303571335
 31
0
  0
LINE
  8
0
 10
0.9304155674661088
 20
-1.41893514561555
 30
0
 11
0.9276963759890897
 21
-1.414641685388789
 31
0
  0
LINE
  8
0
 10
0.93528148905508
 20
-1.421654337092486
 30
0
 11
0.9304155674661088
 21
-1.41893514561555
 31
0
  0
LINE
  8
0
 10
0.9435821788280699
 20
-1.424034946434391
 30
0
 11
0.93528148905508
 21
-1.421654337092486
 31
0
  0
LINE
  8
0
 10
0.9734932850750593
 20
-1.424034946434391
 30
0
 11
0.9435821788280699
 21
-1.424034946434391
 31
0
  0
LINE
  8
0
 10
1.054087345898061
 20
-1.372600961931722
 30
0
 11
1.054493285075059
 21
-1.424034946434391
 31
0
  0
LINE
  8
0
 10
1.051448741258089
 20
-1.367932661413894
 30
0
 11
1.054087345898061
 21
-1.372600961931722
 31
0
  0
LINE
  8
0
 10
1.047998258267089
 20
-1.364076239246812
 30
0
 11
1.051448741258089
 21
-1.367932661413894
 31
0
  0
LINE
  8
0
 10
1.041503231459032
 20
-1.360892093850113
 30
0
 11
1.047998258267089
 21
-1.364076239246812
 31
0
  0
LINE
  8
0
 10
1.005577614431058
 20
-1.360892093850113
 30
0
 11
1.041503231459032
 21
-1.360892093850113
 31
0
  0
LINE
  8
0
 10
1.004968705667093
 20
-1.424034946434391
 30
0
 11
1.005577614431058
 21
-1.360892093850113
 31
0
  0
LINE
  8
0
 10
0.5611717646722901
 20
-0.4636426224556763
 30
0
 11
0.515920657442188
 21
-0.4262559552247667
 31
0
  0
LINE
  8
0
 10
0.4608269235204898
 20
-0.3807372657888308
 30
0
 11
0.408610799619386
 21
-0.443937267201004
 31
0
  0
LINE
  8
0
 10
0.5611717646722901
 20
-0.4636426224556763
 30
0
 11
0.5089556407711789
 21
-0.5268426238678195
 31
0
  0
LINE
  8
0
 10
0.515920657442188
 20
-0.4262559552247667
 30
0
 11
0.4708158770923291
 21
-0.4805555320940884
 31
0
  0
LINE
  8
0
 10
0.515920657442188
 20
-0.4262559552247667
 30
0
 11
0.4608269235204898
 21
-0.3807372657888308
 31
0
  0
LINE
  8
0
 10
0.5537529084173113
 20
-0.2251222677147934
 30
0
 11
0.6134592415282912
 21
-0.249395232971573
 31
0
  0
LINE
  8
0
 10
0.6134592415282912
 20
-0.249395232971573
 30
0
 11
0.5920681481707398
 21
-0.3020127740137077
 31
0
  0
LINE
  8
0
 10
0.6134592415282912
 20
-0.249395232971573
 30
0
 11
0.674332338125987
 21
-0.274142533329844
 31
0
  0
LINE
  8
0
 10
0.674332338125987
 20
-0.274142533329844
 30
0
 11
0.6534597124339671
 21
-0.325484754162212
 31
0
  0
LINE
  8
0
 10
0.6534597124339671
 20
-0.325484754162212
 30
0
 11
0.6463860890221076
 21
-0.3350922691187998
 31
0
  0
LINE
  8
0
 10
0.6463860890221076
 20
-0.3350922691187998
 30
0
 11
0.635870086228737
 21
-0.3412197851950304
 31
0
  0
LINE
  8
0
 10
0.635870086228737
 20
-0.3412197851950304
 30
0
 11
0.6188988075970702
 21
-0.3405619051562144
 31
0
  0
LINE
  8
0
 10
0.6188988075970702
 20
-0.3405619051562144
 30
0
 11
0.6073649091495281
 21
-0.3367645818250357
 31
0
  0
LINE
  8
0
 10
0.6073649091495281
 20
-0.3367645818250357
 30
0
 11
0.5998893771431576
 21
-0.3295644115779632
 31
0
  0
LINE
  8
0
 10
0.5998893771431576
 20
-0.3295644115779632
 30
0
 11
0.5927642631303899
 21
-0.3236955780981562
 31
0
  0
LINE
  8
0
 10
0.5927642631303899
 20
-0.3236955780981562
 30
0
 11
0.5927189466684176
 21
-0.3135716912063772
 31
0
  0
LINE
  8
0
 10
0.5927189466684176
 20
-0.3135716912063772
 30
0
 11
0.5920681481707398
 21
-0.3020127740137077
 31
0
  0
LINE
  8
0
 10
0.5957683196151302
 20
-0.0488101254315452
 30
0
 11
0.6600048070577978
 21
-0.05407289437393502
 31
0
  0
LINE
  8
0
 10
0.6600048070577978
 20
-0.05407289437393502
 30
0
 11
0.6553668742557892
 21
-0.1106827352117435
 31
0
  0
LINE
  8
0
 10
0.6600048070577978
 20
-0.05407289437393502
 30
0
 11
0.7254965849220971
 21
-0.05943850678912441
 31
0
  0
LINE
  8
0
 10
0.7254965849220971
 20
-0.05943850678912441
 30
0
 11
0.7209710642419305
 21
-0.1146762638566406
 31
0
  0
LINE
  8
0
 10
0.7209710642419305
 20
-0.1146762638566406
 30
0
 11
0.7171020444877176
 21
-0.1259621478697126
 31
0
  0
LINE
  8
0
 10
0.7171020444877176
 20
-0.1259621478697126
 30
0
 11
0.7089059072741803
 21
-0.134959708805346
 31
0
  0
LINE
  8
0
 10
0.7089059072741803
 20
-0.134959708805346
 30
0
 11
0.6925176046248781
 21
-0.1394184800278427
 31
0
  0
LINE
  8
0
 10
0.6925176046248781
 20
-0.1394184800278427
 30
0
 11
0.6803758201715391
 21
-0.1392525036178458
 31
0
  0
LINE
  8
0
 10
0.6803758201715391
 20
-0.1392525036178458
 30
0
 11
0.6710859877195071
 21
-0.1346237842076417
 31
0
  0
LINE
  8
0
 10
0.6710859877195071
 20
-0.1346237842076417
 30
0
 11
0.662529475832329
 21
-0.1311601790868127
 31
0
  0
LINE
  8
0
 10
0.662529475832329
 20
-0.1311601790868127
 30
0
 11
0.6594520437036263
 21
-0.1215152555063442
 31
0
  0
LINE
  8
0
 10
0.6594520437036263
 20
-0.1215152555063442
 30
0
 11
0.6553668742557892
 21
-0.1106827352117435
 31
0
  0
LINE
  8
0
 10
0.7099605999115193
 20
0.1607301384190459
 30
0
 11
0.6527116339830391
 21
0.1477693709916957
 31
0
  0
LINE
  8
0
 10
0.5830103716444901
 20
0.1319894903263875
 30
0
 11
0.6011120396444567
 21
0.05203266829494078
 31
0
  0
LINE
  8
0
 10
0.7099605999115193
 20
0.1607301384190459
 30
0
 11
0.7280622679115076
 21
0.0807733163875846
 31
0
  0
LINE
  8
0
 10
0.6527116339830391
 20
0.1477693709916957
 30
0
 11
0.6681159916803118
 21
0.07888112074150831
 31
0
  0
LINE
  8
0
 10
0.6527116339830391
 20
0.1477693709916957
 30
0
 11
0.5830103716444901
 21
0.1319894903263875
 31
0
  0
LINE
  8
0
 10
0.5166519964042783
 20
0.3006543424151122
 30
0
 11
0.5723580626494695
 21
0.3330712706996227
 31
0
  0
LINE
  8
0
 10
0.6291527203504884
 20
0.3661216810002542
 30
0
 11
0.6573634249020798
 21
0.3176436955852724
 31
0
  0
LINE
  8
0
 10
0.6573634249020798
 20
0.3176436955852724
 30
0
 11
0.6594535341664214
 21
0.3054803455728351
 31
0
  0
LINE
  8
0
 10
0.6594535341664214
 20
0.3054803455728351
 30
0
 11
0.6581951366989998
 21
0.2961468493049061
 31
0
  0
LINE
  8
0
 10
0.6581951366989998
 20
0.2961468493049061
 30
0
 11
0.6482701487067789
 21
0.2814514570743885
 31
0
  0
LINE
  8
0
 10
0.6482701487067789
 20
0.2814514570743885
 30
0
 11
0.6357959582364819
 21
0.2738738115046536
 31
0
  0
LINE
  8
0
 10
0.6357959582364819
 20
0.2738738115046536
 30
0
 11
0.6263414680844982
 21
0.2731504215909399
 31
0
  0
LINE
  8
0
 10
0.6263414680844982
 20
0.2731504215909399
 30
0
 11
0.6180553496778776
 21
0.2715141253944557
 31
0
  0
LINE
  8
0
 10
0.6180553496778776
 20
0.2715141253944557
 30
0
 11
0.6084878911846426
 21
0.276459128923877
 31
0
  0
LINE
  8
0
 10
0.6084878911846426
 20
0.276459128923877
 30
0
 11
0.6004517860882479
 21
0.2864365883158126
 31
0
  0
LINE
  8
0
 10
0.6004517860882479
 20
0.2864365883158126
 30
0
 11
0.5964697219235007
 21
0.2930466874705552
 31
0
  0
LINE
  8
0
 10
0.5723580626494695
 20
0.3330712706996227
 30
0
 11
0.6291527203504884
 21
0.3661216810002542
 31
0
  0
LINE
  8
0
 10
0.5964697219235007
 20
0.2930466874705552
 30
0
 11
0.5580187142470205
 21
0.2295687323206248
 31
0
  0
LINE
  8
0
 10
0.5964697219235007
 20
0.2930466874705552
 30
0
 11
0.5723580626494695
 21
0.3330712706996227
 31
0
  0
LINE
  8
0
 10
0.4596379150872381
 20
0.5660000724056472
 30
0
 11
0.4905022083617587
 21
0.5378529672829491
 31
0
  0
LINE
  8
0
 10
0.4027940069140004
 20
0.4416778316779408
 30
0
 11
0.4905022083617587
 21
0.5378529672829491
 31
0
  0
LINE
  8
0
 10
0.4905022083617587
 20
0.5378529672829491
 30
0
 11
0.520776923152891
 21
0.5102435361449708
 31
0
  0
LINE
  8
0
 10
-0.3957547646650192
 20
0.6109471311558984
 30
0
 11
-0.3606960170550756
 21
0.6336572245539456
 31
0
  0
LINE
  8
0
 10
-0.289929896064309
 20
0.5244118977442076
 30
0
 11
-0.3606960170550756
 21
0.6336572245539456
 31
0
  0
LINE
  8
0
 10
-0.3606960170550756
 20
0.6336572245539456
 30
0
 11
-0.3263069715848495
 21
0.6559335033071648
 31
0
  0
LINE
  8
0
 10
-0.5268994660909111
 20
0.498090044473919
 30
0
 11
-0.4982798980518519
 21
0.5285167506936732
 31
0
  0
LINE
  8
0
 10
-0.4034683120334112
 20
0.4393363242172809
 30
0
 11
-0.4982798980518519
 21
0.5285167506936732
 31
0
  0
LINE
  8
0
 10
-0.4982798980518519
 20
0.5285167506936732
 30
0
 11
-0.4702070291180998
 21
0.5583622373420176
 31
0
  0
LINE
  8
0
 10
-0.5247328388798623
 20
0.2864701321058128
 30
0
 11
-0.5161436931428389
 21
0.3031066005346756
 31
0
  0
LINE
  8
0
 10
-0.5161436931428389
 20
0.3031066005346756
 30
0
 11
-0.51503416164184
 21
0.3143086864864853
 31
0
  0
LINE
  8
0
 10
-0.51503416164184
 20
0.3143086864864853
 30
0
 11
-0.5161458795757017
 21
0.323558905383532
 31
0
  0
LINE
  8
0
 10
-0.5161458795757017
 20
0.323558905383532
 30
0
 11
-0.5207066567323299
 21
0.3327306212300792
 31
0
  0
LINE
  8
0
 10
-0.5207066567323299
 20
0.3327306212300792
 30
0
 11
-0.5254017128419791
 21
0.3410420642670396
 31
0
  0
LINE
  8
0
 10
-0.5254017128419791
 20
0.3410420642670396
 30
0
 11
-0.5351400628253203
 21
0.3497882161060879
 31
0
  0
LINE
  8
0
 10
-0.5351400628253203
 20
0.3497882161060879
 30
0
 11
-0.5826029286372204
 21
0.37429254364999
 31
0
  0
LINE
  8
0
 10
-0.5826029286372204
 20
0.37429254364999
 30
0
 11
-0.5962409826169597
 21
0.3766856608399567
 31
0
  0
LINE
  8
0
 10
-0.5962409826169597
 20
0.3766856608399567
 30
0
 11
-0.6141258015498706
 21
0.374454256985995
 31
0
  0
LINE
  8
0
 10
-0.6141258015498706
 20
0.374454256985995
 30
0
 11
-0.6239290722299293
 21
0.3686702100920783
 31
0
  0
LINE
  8
0
 10
-0.6239290722299293
 20
0.3686702100920783
 30
0
 11
-0.6318018362190077
 21
0.3628190720127195
 31
0
  0
LINE
  8
0
 10
-0.6318018362190077
 20
0.3628190720127195
 30
0
 11
-0.6397594271225308
 21
0.347405873321044
 31
0
  0
LINE
  8
0
 10
-0.6397594271225308
 20
0.347405873321044
 30
0
 11
-0.6408388057983712
 21
0.3371178188525263
 31
0
  0
LINE
  8
0
 10
-0.6408388057983712
 20
0.3371178188525263
 30
0
 11
-0.637793760242118
 21
0.3250102556368266
 31
0
  0
LINE
  8
0
 10
-0.637793760242118
 20
0.3250102556368266
 30
0
 11
-0.6341956629036395
 21
0.3175750213805194
 31
0
  0
LINE
  8
0
 10
-0.6341956629036395
 20
0.3175750213805194
 30
0
 11
-0.6303608796035213
 21
0.309397857296568
 31
0
  0
LINE
  8
0
 10
-0.6303608796035213
 20
0.309397857296568
 30
0
 11
-0.6205065794323118
 21
0.3008762914289954
 31
0
  0
LINE
  8
0
 10
-0.6205065794323118
 20
0.3008762914289954
 30
0
 11
-0.57353302151554
 21
0.2766245858185966
 31
0
  0
LINE
  8
0
 10
-0.57353302151554
 20
0.2766245858185966
 30
0
 11
-0.5601451966756895
 21
0.2731466098475966
 31
0
  0
LINE
  8
0
 10
-0.5601451966756895
 20
0.2731466098475966
 30
0
 11
-0.5448651001283497
 21
0.2739339939744641
 31
0
  0
LINE
  8
0
 10
-0.5448651001283497
 20
0.2739339939744641
 30
0
 11
-0.532094110135239
 21
0.2806647847145468
 31
0
  0
LINE
  8
0
 10
-0.532094110135239
 20
0.2806647847145468
 30
0
 11
-0.5247328388798623
 21
0.2864701321058128
 31
0
  0
LINE
  8
0
 10
-0.7071084335729273
 20
0.1877017210901577
 30
0
 11
-0.7144521519829714
 21
0.1376685848545858
 31
0
  0
LINE
  8
0
 10
-0.5857232591059792
 20
0.1183969287218678
 30
0
 11
-0.5784337378797489
 21
0.1680608167198988
 31
0
  0
LINE
  8
0
 10
-0.5784337378797489
 20
0.1680608167198988
 30
0
 11
-0.6490013277787613
 21
0.1784185225941155
 31
0
  0
LINE
  8
0
 10
-0.6490013277787613
 20
0.1784185225941155
 30
0
 11
-0.6532016095262223
 21
0.1498017841565489
 31
0
  0
LINE
  8
0
 10
-0.7144521519829714
 20
0.1376685848545858
 30
0
 11
-0.7128805547837318
 21
0.1261218160887184
 31
0
  0
LINE
  8
0
 10
-0.7128805547837318
 20
0.1261218160887184
 30
0
 11
-0.7018097027566391
 21
0.109031539716827
 31
0
  0
LINE
  8
0
 10
-0.7018097027566391
 20
0.109031539716827
 30
0
 11
-0.6808621032301916
 21
0.100124251324578
 31
0
  0
LINE
  8
0
 10
-0.6808621032301916
 20
0.100124251324578
 30
0
 11
-0.6282442293290513
 21
0.09240115262761903
 31
0
  0
LINE
  8
0
 10
-0.6282442293290513
 20
0.09240115262761903
 30
0
 11
-0.6053817154803209
 21
0.09525532297302927
 31
0
  0
LINE
  8
0
 10
-0.6053817154803209
 20
0.09525532297302927
 30
0
 11
-0.5977105667297028
 21
0.09997602275940519
 31
0
  0
LINE
  8
0
 10
-0.5977105667297028
 20
0.09997602275940519
 30
0
 11
-0.5857232591059792
 21
0.1183969287218678
 31
0
  0
LINE
  8
0
 10
-0.6032185230797613
 20
-0.01327434346679729
 30
0
 11
-0.718819658547981
 21
-0.1147890644083637
 31
0
  0
LINE
  8
0
 10
-0.7317528667418108
 20
-0.03380012747652291
 30
0
 11
-0.6032185230797613
 21
-0.01327434346679729
 31
0
  0
LINE
  8
0
 10
-0.5902853148858976
 20
-0.09426328039865346
 30
0
 11
-0.718819658547981
 21
-0.1147890644083637
 31
0
  0
LINE
  8
0
 10
-0.5715109551291998
 20
-0.1934528959419877
 30
0
 11
-0.6513733969024388
 21
-0.3249475782808333
 31
0
  0
LINE
  8
0
 10
-0.68798502627369
 20
-0.251557767173883
 30
0
 11
-0.5715109551291998
 21
-0.1934528959419877
 31
0
  0
LINE
  8
0
 10
-0.5348993257579523
 20
-0.2668427070489534
 30
0
 11
-0.6513733969024388
 21
-0.3249475782808333
 31
0
  0
LINE
  8
0
 10
-0.5240415927621689
 20
-0.505231273654059
 30
0
 11
-0.4817845445641288
 21
-0.4644910297940332
 31
0
  0
LINE
  8
0
 10
-0.4303361113158608
 20
-0.4148893229514316
 30
0
 11
-0.4872360111656817
 21
-0.3558709768984226
 31
0
  0
LINE
  8
0
 10
-0.5240415927621689
 20
-0.505231273654059
 30
0
 11
-0.5809414926119607
 21
-0.4462129276010846
 31
0
  0
LINE
  8
0
 10
-0.4817845445641288
 20
-0.4644910297940332
 30
0
 11
-0.5306439092319823
 21
-0.4135435299255306
 31
0
  0
LINE
  8
0
 10
-0.4817845445641288
 20
-0.4644910297940332
 30
0
 11
-0.4303361113158608
 21
-0.4148893229514316
 31
0
  0
LINE
  8
0
 10
-0.3481537719509507
 20
-0.6392708204659612
 30
0
 11
-0.3043433619553797
 21
-0.5588272952217411
 31
0
  0
LINE
  8
0
 10
-0.3043433619553797
 20
-0.5588272952217411
 30
0
 11
-0.3378566168138422
 21
-0.5707481412754597
 31
0
  0
LINE
  8
0
 10
-0.3043433619553797
 20
-0.5588272952217411
 30
0
 11
-0.2858993301879308
 21
-0.5249608480636571
 31
0
  0
LINE
  8
0
 10
-0.3378566168138422
 20
-0.5707481412754597
 30
0
 11
-0.3579406053109314
 21
-0.4857263939523954
 31
0
  0
LINE
  8
0
 10
-0.3378566168138422
 20
-0.5707481412754597
 30
0
 11
-0.4201950470739284
 21
-0.6000363663547068
 31
0
  0
LINE
  8
0
 10
-0.05504502875366143
 20
-1.301332614942622
 30
0
 11
-0.05504502875366143
 21
-1.241180900669133
 31
0
  0
LINE
  8
0
 10
-0.1164262148982335
 20
-1.271457323328104
 30
0
 11
-0.03506258979875838
 21
-1.271457323328104
 31
0
  0
LINE
  8
0
 10
-0.05504502875366143
 20
-1.151219746195603
 30
0
 11
-0.1164262148982335
 21
-1.271457323328104
 31
0
  0
LINE
  8
0
 10
-0.2119850227308007
 20
-1.226184864477582
 30
0
 11
-0.2658667216137064
 21
-1.227002449612555
 31
0
  0
LINE
  8
0
 10
-0.2119850227308007
 20
-1.226184864477582
 30
0
 11
-0.1710151999202163
 21
-1.301332614942622
 31
0
  0
LINE
  8
0
 10
-0.2658667216137064
 20
-1.227002449612555
 30
0
 11
-0.2658667216137064
 21
-1.151219746195603
 31
0
  0
LINE
  8
0
 10
-0.203086407342339
 20
-1.226049839491134
 30
0
 11
-0.2119850227308007
 21
-1.226184864477582
 31
0
  0
LINE
  8
0
 10
-0.1884797188133188
 20
-1.223827082541102
 30
0
 11
-0.203086407342339
 21
-1.226049839491134
 31
0
  0
LINE
  8
0
 10
-0.1780010074777193
 20
-1.217158811691116
 30
0
 11
-0.1884797188133188
 21
-1.223827082541102
 31
0
  0
LINE
  8
0
 10
-0.1748256404063385
 20
-1.207950247183581
 30
0
 11
-0.1780010074777193
 21
-1.217158811691116
 31
0
  0
LINE
  8
0
 10
-0.1700625897987583
 20
-1.198106609262104
 30
0
 11
-0.1748256404063385
 21
-1.207950247183581
 31
0
  0
LINE
  8
0
 10
-0.1703801265063484
 20
-1.181277163783635
 30
0
 11
-0.1700625897987583
 21
-1.198106609262104
 31
0
  0
LINE
  8
0
 10
-0.1792711543063296
 20
-1.16286003476911
 30
0
 11
-0.1703801265063484
 21
-1.181277163783635
 31
0
  0
LINE
  8
0
 10
-0.1878446453993047
 20
-1.156191763919087
 30
0
 11
-0.1792711543063296
 21
-1.16286003476911
 31
0
  0
LINE
  8
0
 10
-0.2011811870992779
 20
-1.151219746195603
 30
0
 11
-0.1878446453993047
 21
-1.156191763919087
 31
0
  0
LINE
  8
0
 10
-0.2658667216137064
 20
-1.151219746195603
 30
0
 11
-0.2011811870992779
 21
-1.151219746195603
 31
0
  0
LINE
  8
0
 10
-0.2658667216137064
 20
-1.301332614942622
 30
0
 11
-0.2658667216137064
 21
-1.227002449612555
 31
0
  0
LINE
  8
0
 10
-0.3050625897987584
 20
-1.151219746195603
 30
0
 11
-0.3717372502843454
 21
-1.301332614942622
 31
0
  0
LINE
  8
0
 10
-0.3857443259148522
 20
-1.151219746195603
 30
0
 11
-0.3050625897987584
 21
-1.151219746195603
 31
0
  0
LINE
  8
0
 10
-0.3857443259148522
 20
-1.166915256764587
 30
0
 11
-0.3857443259148522
 21
-1.151219746195603
 31
0
  0
LINE
  8
0
 10
-0.4882418821357669
 20
-1.211669480926103
 30
0
 11
-0.4747699473118644
 21
-1.211212805169634
 31
0
  0
LINE
  8
0
 10
-0.4982887487842482
 20
-1.15572670072408
 30
0
 11
-0.4886985578927807
 21
-1.151219746195603
 31
0
  0
LINE
  8
0
 10
-0.5087922911897431
 20
-1.162576837075612
 30
0
 11
-0.4982887487842482
 21
-1.15572670072408
 31
0
  0
LINE
  8
0
 10
-0.5142724002708519
 20
-1.17399373099408
 30
0
 11
-0.5087922911897431
 21
-1.162576837075612
 31
0
  0
LINE
  8
0
 10
-0.5147290760278657
 20
-1.189064030967057
 30
0
 11
-0.5142724002708519
 21
-1.17399373099408
 31
0
  0
LINE
  8
0
 10
-0.5083356154333114
 20
-1.200480924886106
 30
0
 11
-0.5147290760278657
 21
-1.189064030967057
 31
0
  0
LINE
  8
0
 10
-0.4978320730278164
 20
-1.207559399115635
 30
0
 11
-0.5083356154333114
 21
-1.200480924886106
 31
0
  0
LINE
  8
0
 10
-0.4882418821357669
 20
-1.211669480926103
 30
0
 11
-0.4978320730278164
 21
-1.207559399115635
 31
0
  0
LINE
  8
0
 10
-0.5053672230143231
 20
-1.218519617277634
 30
0
 11
-0.4882418821357669
 21
-1.211669480926103
 31
0
  0
LINE
  8
0
 10
-0.5158707654192358
 20
-1.230164849074608
 30
0
 11
-0.5053672230143231
 21
-1.218519617277634
 31
0
  0
LINE
  8
0
 10
-0.5220031547892678
 20
-1.245463486926128
 30
0
 11
-0.5158707654192358
 21
-1.230164849074608
 31
0
  0
LINE
  8
0
 10
-0.5220031547892678
 20
-1.268753950520586
 30
0
 11
-0.5220031547892678
 21
-1.245463486926128
 31
0
  0
LINE
  8
0
 10
-0.5149574139057904
 20
-1.283139236858116
 30
0
 11
-0.5220031547892678
 21
-1.268753950520586
 31
0
  0
LINE
  8
0
 10
-0.504910547257309
 20
-1.29364277926361
 30
0
 11
-0.5149574139057904
 21
-1.283139236858116
 31
0
  0
LINE
  8
0
 10
-0.4916669503117691
 20
-1.301332614942622
 30
0
 11
-0.504910547257309
 21
-1.29364277926361
 31
0
  0
LINE
  8
0
 10
-0.4713448791362999
 20
-1.301332614942622
 30
0
 11
-0.4916669503117691
 21
-1.301332614942622
 31
0
  0
LINE
  8
0
 10
-0.4581012821903232
 20
-1.294327792898584
 30
0
 11
-0.4713448791362999
 21
-1.301332614942622
 31
0
  0
LINE
  8
0
 10
-0.4480544155418422
 20
-1.283824250493053
 30
0
 11
-0.4581012821903232
 21
-1.294327792898584
 31
0
  0
LINE
  8
0
 10
-0.4400625897987582
 20
-1.26829727476361
 30
0
 11
-0.4480544155418422
 21
-1.283824250493053
 31
0
  0
LINE
  8
0
 10
-0.4409759413117672
 20
-1.244778473291117
 30
0
 11
-0.4400625897987582
 21
-1.26829727476361
 31
0
  0
LINE
  8
0
 10
-0.4475977397848284
 20
-1.230849862710128
 30
0
 11
-0.4409759413117672
 21
-1.244778473291117
 31
0
  0
LINE
  8
0
 10
-0.4569595927983709
 20
-1.219204630912609
 30
0
 11
-0.4475977397848284
 21
-1.230849862710128
 31
0
  0
LINE
  8
0
 10
-0.4747699473118644
 20
-1.211212805169634
 30
0
 11
-0.4569595927983709
 21
-1.219204630912609
 31
0
  0
LINE
  8
0
 10
-0.4631247155142728
 20
-1.207559399115635
 30
0
 11
-0.4747699473118644
 21
-1.211212805169634
 31
0
  0
LINE
  8
0
 10
-0.4553612276498424
 20
-1.200024249129055
 30
0
 11
-0.4631247155142728
 21
-1.207559399115635
 31
0
  0
LINE
  8
0
 10
-0.4475977397848284
 20
-1.189064030967057
 30
0
 11
-0.4553612276498424
 21
-1.200024249129055
 31
0
  0
LINE
  8
0
 10
-0.4473694019067581
 20
-1.174222068872587
 30
0
 11
-0.4475977397848284
 21
-1.189064030967057
 31
0
  0
LINE
  8
0
 10
-0.4542195382577438
 20
-1.162576837075612
 30
0
 11
-0.4473694019067581
 21
-1.174222068872587
 31
0
  0
LINE
  8
0
 10
-0.4642664049063714
 20
-1.15549836284561
 30
0
 11
-0.4542195382577438
 21
-1.162576837075612
 31
0
  0
LINE
  8
0
 10
-0.4740849336767815
 20
-1.151219746195603
 30
0
 11
-0.4642664049063714
 21
-1.15549836284561
 31
0
  0
LINE
  8
0
 10
-0.4886985578927807
 20
-1.151219746195603
 30
0
 11
-0.4740849336767815
 21
-1.151219746195603
 31
0
  0
LINE
  8
0
 10
-0.5750625897987584
 20
-1.151219746195603
 30
0
 11
-0.5750625897987584
 21
-1.301332614942622
 31
0
  0
LINE
  8
0
 10
-0.6163569666047942
 20
-1.19661180953608
 30
0
 11
-0.5750625897987584
 21
-1.151219746195603
 31
0
  0
LINE
  8
0
 10
-0.6704832122362814
 20
-1.271740528548107
 30
0
 11
-0.6425625897987584
 21
-1.301332614942622
 31
0
  0
LINE
  8
0
 10
-0.7104048039668078
 20
-1.155649519466606
 30
0
 11
-0.6998733411177773
 21
-1.151219746195603
 31
0
  0
LINE
  8
0
 10
-0.7177523361874001
 20
-1.161772462983608
 30
0
 11
-0.7104048039668078
 21
-1.155649519466606
 31
0
  0
LINE
  8
0
 10
-0.7260795393703984
 20
-1.170344583907135
 30
0
 11
-0.7177523361874001
 21
-1.161772462983608
 31
0
  0
LINE
  8
0
 10
-0.7341618248127588
 20
-1.181120964497131
 30
0
 11
-0.7260795393703984
 21
-1.170344583907135
 31
0
  0
LINE
  8
0
 10
-0.7372724112223614
 20
-1.196550782160084
 30
0
 11
-0.7341618248127588
 21
-1.181120964497131
 31
0
  0
LINE
  8
0
 10
-0.7372724112223614
 20
-1.256800546367123
 30
0
 11
-0.7372724112223614
 21
-1.196550782160084
 31
0
  0
LINE
  8
0
 10
-0.7341618248127588
 20
-1.269781186623112
 30
0
 11
-0.7372724112223614
 21
-1.256800546367123
 31
0
  0
LINE
  8
0
 10
-0.7204464313348526
 20
-1.289864441358623
 30
0
 11
-0.7341618248127588
 21
-1.269781186623112
 31
0
  0
LINE
  8
0
 10
-0.7101598862263154
 20
-1.298436562282113
 30
0
 11
-0.7204464313348526
 21
-1.289864441358623
 31
0
  0
LINE
  8
0
 10
-0.7028123540058687
 20
-1.301332614942622
 30
0
 11
-0.7101598862263154
 21
-1.298436562282113
 31
0
  0
LINE
  8
0
 10
-0.6797900863818314
 20
-1.301332614942622
 30
0
 11
-0.7028123540058687
 21
-1.301332614942622
 31
0
  0
LINE
  8
0
 10
-0.6692586235328009
 20
-1.297946726801128
 30
0
 11
-0.6797900863818314
 21
-1.301332614942622
 31
0
  0
LINE
  8
0
 10
-0.6604415848683811
 20
-1.291333947802632
 30
0
 11
-0.6692586235328009
 21
-1.297946726801128
 31
0
  0
LINE
  8
0
 10
-0.6518694639448904
 20
-1.284231333323114
 30
0
 11
-0.6604415848683811
 21
-1.291333947802632
 31
0
  0
LINE
  8
0
 10
-0.6450117672058651
 20
-1.271740528548107
 30
0
 11
-0.6518694639448904
 21
-1.284231333323114
 31
0
  0
LINE
  8
0
 10
-0.6428075075393963
 20
-1.256555628626121
 30
0
 11
-0.6450117672058651
 21
-1.271740528548107
 31
0
  0
LINE
  8
0
 10
-0.6425625897987584
 20
-1.195081275715603
 30
0
 11
-0.6428075075393963
 21
-1.256555628626121
 31
0
  0
LINE
  8
0
 10
-0.6452566849463574
 20
-1.182100635459611
 30
0
 11
-0.6425625897987584
 21
-1.195081275715603
 31
0
  0
LINE
  8
0
 10
-0.6516245462038159
 20
-1.17205900809211
 30
0
 11
-0.6452566849463574
 21
-1.182100635459611
 31
0
  0
LINE
  8
0
 10
-0.658237325202349
 20
-1.162997051686581
 30
0
 11
-0.6516245462038159
 21
-1.17205900809211
 31
0
  0
LINE
  8
0
 10
-0.6690137057923085
 20
-1.155649519466606
 30
0
 11
-0.658237325202349
 21
-1.162997051686581
 31
0
  0
LINE
  8
0
 10
-0.6797900863818314
 20
-1.151219746195603
 30
0
 11
-0.6690137057923085
 21
-1.155649519466606
 31
0
  0
LINE
  8
0
 10
-0.6998733411177773
 20
-1.151219746195603
 30
0
 11
-0.6797900863818314
 21
-1.151219746195603
 31
0
  0
LINE
  8
0
 10
-0.7914024210073649
 20
-1.158812714688137
 30
0
 11
-0.7819330628123089
 21
-1.166278939418553
 31
0
  0
LINE
  8
0
 10
-0.8005075731177894
 20
-1.155716962970109
 30
0
 11
-0.7914024210073649
 21
-1.158812714688137
 31
0
  0
LINE
  8
0
 10
-0.8183536712553132
 20
-1.151219746195603
 30
0
 11
-0.8005075731177894
 21
-1.155716962970109
 31
0
  0
LINE
  8
0
 10
-0.8320113994213116
 20
-1.151219746195603
 30
0
 11
-0.8183536712553132
 21
-1.151219746195603
 31
0
  0
LINE
  8
0
 10
-0.8551384857828044
 20
-1.158994817730055
 30
0
 11
-0.8320113994213116
 21
-1.151219746195603
 31
0
  0
LINE
  8
0
 10
-0.8660646683158076
 20
-1.166643145503112
 30
0
 11
-0.8551384857828044
 21
-1.158994817730055
 31
0
  0
LINE
  8
0
 10
-0.8687962139488036
 20
-1.177933534120602
 30
0
 11
-0.8660646683158076
 21
-1.166643145503112
 31
0
  0
LINE
  8
0
 10
-0.8693425230753147
 20
-1.186310274062635
 30
0
 11
-0.8687962139488036
 21
-1.177933534120602
 31
0
  0
LINE
  8
0
 10
-0.8657004622313207
 20
-1.19669014746858
 30
0
 11
-0.8693425230753147
 21
-1.186310274062635
 31
0
  0
LINE
  8
0
 10
-0.8567774131627767
 20
-1.203063753946079
 30
0
 11
-0.8657004622313207
 21
-1.19669014746858
 31
0
  0
LINE
  8
0
 10
-0.7985044396537661
 20
-1.230561313320612
 30
0
 11
-0.8567774131627767
 21
-1.203063753946079
 31
0
  0
LINE
  8
0
 10
-0.7886708753742232
 20
-1.237845435009623
 30
0
 11
-0.7985044396537661
 21
-1.230561313320612
 31
0
  0
LINE
  8
0
 10
-0.7817509597698472
 20
-1.248771617542117
 30
0
 11
-0.7886708753742232
 21
-1.237845435009623
 31
0
  0
LINE
  8
0
 10
-0.7784731050097571
 20
-1.259697800075119
 30
0
 11
-0.7817509597698472
 21
-1.248771617542117
 31
0
  0
LINE
  8
0
 10
-0.7775625897987584
 20
-1.268438746101639
 30
0
 11
-0.7784731050097571
 21
-1.259697800075119
 31
0
  0
LINE
  8
0
 10
-0.7813867536853605
 20
-1.278272310381108
 30
0
 11
-0.7775625897987584
 21
-1.268438746101639
 31
0
  0
LINE
  8
0
 10
-0.7875782571207628
 20
-1.290109008125109
 30
0
 11
-0.7813867536853605
 21
-1.278272310381108
 31
0
  0
LINE
  8
0
 10
-0.7977760274847924
 20
-1.297393129813609
 30
0
 11
-0.7875782571207628
 21
-1.290109008125109
 31
0
  0
LINE
  8
0
 10
-0.8141653012842244
 20
-1.301332614942622
 30
0
 11
-0.7977760274847924
 21
-1.297393129813609
 31
0
  0
LINE
  8
0
 10
-0.835835563307769
 20
-1.301332614942622
 30
0
 11
-0.8141653012842244
 21
-1.301332614942622
 31
0
  0
LINE
  8
0
 10
-0.8516785279808347
 20
-1.297757335898132
 30
0
 11
-0.835835563307769
 21
-1.301332614942622
 31
0
  0
LINE
  8
0
 10
-0.8657004622313207
 20
-1.290655317251622
 30
0
 11
-0.8516785279808347
 21
-1.297757335898132
 31
0
  0
LINE
  8
0
 10
-0.8727584138863266
 20
-1.282642783394112
 30
0
 11
-0.8657004622313207
 21
-1.290655317251622
 31
0
  0
LINE
  8
0
 10
-1.006648028194753
 20
-1.301332614942622
 30
0
 11
-0.9125625897987584
 21
-1.301332614942622
 31
0
  0
LINE
  8
0
 10
-0.9125625897987584
 20
-1.151219746195603
 30
0
 11
-1.006648028194753
 21
-1.301332614942622
 31
0
  0
LINE
  8
0
 10
-1.006648028194753
 20
-1.151219746195603
 30
0
 11
-0.9125625897987584
 21
-1.151219746195603
 31
0
  0
ARC
  8
0
 10
9.094947017729283e-14
 20
-9.094947017729283e-14
 30
0
 40
0.5900000000000016
 50
130.4979524968167
 51
153.8047102648509
  0
ARC
  8
0
 10
9.094947017729283e-14
 20
-9.094947017729283e-14
 30
0
 40
0.5900000000000022
 50
153.8047102648509
 51
177.1114680328837
  0
ARC
  8
0
 10
9.094947017729283e-14
 20
-9.094947017729283e-14
 30
0
 40
0.5900000000000023
 50
177.1114680328837
 51
200.4182258009177
  0
ARC
  8
0
 10
9.094947017729283e-14
 20
-9.094947017729283e-14
 30
0
 40
0.5900000000000004
 50
200.4182258009177
 51
223.7249835689509
  0
ARC
  8
0
 10
9.094947017729283e-14
 20
-9.094947017729283e-14
 30
0
 40
0.5899999999999997
 50
223.7249835689509
 51
247.031741336985
  0
ARC
  8
0
 10
9.094947017729283e-14
 20
-9.094947017729283e-14
 30
0
 40
0.5899999999999994
 50
247.031741336985
 51
270.338499105018
  0
ARC
  8
0
 10
9.094947017729283e-14
 20
-9.094947017729283e-14
 30
0
 40
0.5899999999999974
 50
270.338499105018
 51
293.6452568730517
  0
ARC
  8
0
 10
9.094947017729283e-14
 20
-9.094947017729283e-14
 30
0
 40
0.5899999999999986
 50
293.6452568730517
 51
316.952014641085
  0
ARC
  8
0
 10
9.094947017729283e-14
 20
-9.094947017729283e-14
 30
0
 40
0.5899999999999979
 50
316.952014641085
 51
340.2587724091192
  0
ARC
  8
0
 10
9.094947017729283e-14
 20
-9.094947017729283e-14
 30
0
 40
0.5899999999999983
 50
340.2587724091192
 51
3.565530177152314
  0
ARC
  8
0
 10
9.094947017729283e-14
 20
-9.094947017729283e-14
 30
0
 40
0.589999999999999
 50
3.565530177152314
 51
26.87228794518615
  0
ARC
  8
0
 10
9.094947017729283e-14
 20
-9.094947017729283e-14
 30
0
 40
0.5899999999999961
 50
26.87228794518615
 51
50.17904571321941
  0
ARC
  8
0
 10
9.094947017729283e-14
 20
-9.094947017729283e-14
 30
0
 40
0.589999999999999
 50
50.17904571321941
 51
73.48580348125333
  0
CIRCLE
  8
0
 10
0.1677092160130432
 20
0.5656621066186235
 30
0
 40
0.07000000000000009
  0
INSERT
  8
0
  2
*D0
 10
0
 20
0
 30
0
 43
1
  0
INSERT
  8
0
  2
*D1
 10
0
 20
0
 30
0
 43
1
  0
INSERT
  8
0
  2
*D2
 10
0
 20
0
 30
0
 43
1
  0
ENDSEC
  0
EOF
