  0
SECTION
  2
HEADER
  9
$ACADVER
  1
AC1009
  9
$INSBASE
 10
0
 20
0
  9
$EXTMIN
 10
-1.08223296239541
 20
-1.379949566814979
  9
$EXTMAX
 10
1.10888832800111
 20
0.9533514236331213
  9
$LIMMIN
 10
-1.08223296239541
 20
-1.379949566814979
  9
$LIMMAX
 10
1.10888832800111
 20
0.9533514236331213
  9
$VIEWCTR
 10
10
 20
10
  9
$VIEWSIZE
 40
10
  9
$SNAPMODE
 70
0
  9
$SNAPUNIT
 10
1
 20
1
  9
$SNAPBASE
 10
0
 20
0
  9
$SNAPANG
 50
0
  9
$SNAPSTYLE
 70
0
  9
$SNAPISOPAIR
 70
0
  9
$GRIDMODE
 70
0
  9
$GRIDUNIT
 10
0
 20
0
  9
$ORTHOMODE
 70
0
  9
$REGENMODE
 70
1
  9
$FILLMODE
 70
1
  9
$QTEXTMODE
 70
0
  9
$DRAGMODE
 70
2
  9
$LTSCALE
 40
1
  9
$OSMODE
 70
0
  9
$ATTMODE
 70
1
  9
$TEXTSIZE
 40
3.5
  9
$TRACEWID
 40
0.5
  9
$TEXTSTYLE
  7
STANDARD
  9
$CLAYER
  8
0
  9
$CELTYPE
  6
BYLAYER
  9
$CECOLOR
 62
256
  9
$DIMSCALE
 40
1
  9
$DIMASZ
 40
0.18
  9
$DIMEXO
 40
0.0625
  9
$DIMDLI
 40
0.38
  9
$DIMRND
 40
0
  9
$DIMDLE
 40
0
  9
$DIMEXE
 40
0.18
  9
$DIMTP
 40
0
  9
$DIMTM
 40
0
  9
$DIMTXT
 40
0.18
  9
$DIMCEN
 40
0.09
  9
$DIMTSZ
 40
0
  9
$DIMTOL
 70
0
  9
$DIMLIM
 70
0
  9
$DIMTIH
 70
1
  9
$DIMTOH
 70
1
  9
$DIMSE1
 70
0
  9
$DIMSE2
 70
0
  9
$DIMTAD
 70
0
  9
$DIMZIN
 70
0
  9
$DIMBLK
  1

  9
$DIMASO
 70
1
  9
$DIMSHO
 70
1
  9
$DIMPOST
  1

  9
$DIMAPOST
  1

  9
$DIMALT
 70
0
  9
$DIMALTD
 70
2
  9
$DIMALTF
 40
25.4
  9
$DIMLFAC
 40
1
  9
$DIMTOFL
 70
0
  9
$DIMTVP
 40
0
  9
$DIMTIX
 70
0
  9
$DIMSOXD
 70
0
  9
$DIMSAH
 70
0
  9
$DIMBLK1
  1

  9
$DIMBLK2
  1

  9
$DIMSTYLE
  2
*UNNAMED
  9
$DIMCLRD
 70
0
  9
$DIMCLRE
 70
0
  9
$DIMCLRT
 70
0
  9
$DIMTFAC
 40
1
  9
$DIMGAP
 40
0.09
  9
$LUNITS
 70
2
  9
$LUPREC
 70
4
  9
$AXISMODE
 70
0
  9
$AXISUNIT
 10
0
 20
0
  9
$SKETCHINC
 40
0.1
  9
$FILLETRAD
 40
2
  9
$AUNITS
 70
0
  9
$AUPREC
 70
0
  9
$MENU
  1
ACAD
  9
$ELEVATION
 40
0
  9
$THICKNESS
 40
0
  9
$VIEWDIR
 10
0
 20
0
 30
1
  9
$LIMCHECK
 70
0
  9
$BLIPMODE
 70
1
  9
$CHAMFERA
 40
0
  9
$CHAMFERB
 40
0
  9
$FASTZOOM
 70
1
  9
$SKPOLY
 70
0
  9
$ANGBASE
 50
0
  9
$ANGDIR
 70
0
  9
$PDMODE
 70
0
  9
$PDSIZE
 40
0
  9
$PLINEWID
 40
0
  9
$COORDS
 70
2
  0
ENDSEC
  0
SECTION
  2
TABLES
  0
TABLE
  2
LTYPE
 70
9
  0
LTYPE
  2
CONTINUOUS
 70
64
  3
Solid line
 72
65
 73
0
 40
0
  0
LTYPE
  2
BORDER
 70
64
  3
__ __ . __ __ .
 72
65
 73
6
 40
0.1074546508758994
 49
0.03070132882168553
 49
-0.01535066441084277
 49
0.03070132882168553
 49
-0.01535066441084277
 49
0
 49
-0.01535066441084277
  0
LTYPE
  2
CENTER
 70
64
  3
____ _ ____ _
 72
65
 73
4
 40
0.1228053152867421
 49
0.07675332205421383
 49
-0.01535066441084277
 49
0.01535066441084277
 49
-0.01535066441084277
  0
LTYPE
  2
DASHDOT
 70
64
  3
__ . __ . __ .
 72
65
 73
4
 40
0.06140265764337106
 49
0.03070132882168553
 49
-0.01535066441084277
 49
0
 49
-0.01535066441084277
  0
LTYPE
  2
DASHED
 70
64
  3
__ __ __ __ __
 72
65
 73
2
 40
0.0460519932325283
 49
0.03070132882168553
 49
-0.01535066441084277
  0
LTYPE
  2
DIVIDE
 70
64
  3
__ . . __ . . 
 72
65
 73
6
 40
0.07675332205421383
 49
0.03070132882168553
 49
-0.01535066441084277
 49
0
 49
-0.01535066441084277
 49
0
 49
-0.01535066441084277
  0
LTYPE
  2
DOT
 70
64
  3
..............
 72
65
 73
4
 40
0.03070132882168553
 49
0
 49
-0.01535066441084277
 49
0
 49
-0.01535066441084277
  0
LTYPE
  2
HIDDEN
 70
64
  3
_ _ _ _ _ _ _
 72
65
 73
2
 40
0.02302599661626415
 49
0.01535066441084277
 49
-0.007675332205421383
  0
LTYPE
  2
PHANTOM
 70
64
  3
_____ _ _ _____ _ _ 
 72
65
 73
6
 40
0.1535066441084277
 49
0.07675332205421383
 49
-0.01535066441084277
 49
0.01535066441084277
 49
-0.01535066441084277
 49
0.01535066441084277
 49
-0.01535066441084277
  0
ENDTAB
  0
TABLE
  2
LAYER
 70
2
  0
LAYER
  2
0
 70
0
 62
7
  6
CONTINUOUS
  0
ENDTAB
  0
TABLE
  2
STYLE
 70
4
  0
STYLE
  2
STANDARD
 70
0
 40
0
 41
1
 50
0
 71
0
 42
3.5
  3
txt
  4

  0
STYLE
  2
SIMPLEX
 70
0
 40
0
 41
1
 50
0
 71
0
 42
3.5
  3
simplex
  4

  0
STYLE
  2
COMPLEX
 70
0
 40
0
 41
1
 50
0
 71
0
 42
3.5
  3
complex
  4

  0
STYLE
  2
ITALIC
 70
0
 40
0
 41
1
 50
0
 71
0
 42
3.5
  3
italic
  4

  0
ENDTAB
  0
TABLE
  2
VIEW
 70
0
  0
ENDTAB
  0
ENDSEC
  0
SECTION
  2
BLOCKS
  0
BLOCK
  8
0
  2
*D0
 70
1
 10
0
 20
0
 30
0
  0
LINE
  8
0
 10
1.07888832800111
 20
-0.8875000000000001
 30
0
 11
1.07888832800111
 21
0.8875000000000001
 31
0
  0
LINE
  8
0
 10
0.05000000000000004
 20
-0.8875000000000001
 30
0
 11
1.10888832800111
 21
-0.8875000000000001
 31
0
  0
LINE
  8
0
 10
0.05000000000000004
 20
0.8875000000000001
 30
0
 11
1.10888832800111
 21
0.8875000000000001
 31
0
  0
LINE
  8
0
 10
1.096565997530774
 20
0.8698223304703364
 30
0
 11
1.061210658471446
 21
0.9051776695296637
 31
0
  0
LINE
  8
0
 10
1.061210658471446
 20
-0.8698223304703364
 30
0
 11
1.096565997530774
 21
-0.9051776695296637
 31
0
  0
TEXT
  8
0
 62
7
 10
1.06388832800111
 20
-0.3273733032187225
 30
0
 40
0.05
  1
Durchmesser 1,78
 50
90
 41
0.9
  0
ENDBLK
  8
0
  0
BLOCK
  8
0
  2
*D1
 70
1
 10
0
 20
0
 30
0
  0
LINE
  8
0
 10
-0.99421310485522
 20
-0.8100000000000002
 30
0
 11
-0.99421310485522
 21
0.8100000000000002
 31
0
  0
LINE
  8
0
 10
-0.05000000000000004
 20
-0.8100000000000002
 30
0
 11
-1.02421310485522
 21
-0.8100000000000002
 31
0
  0
LINE
  8
0
 10
-0.05000000000000004
 20
0.8100000000000002
 30
0
 11
-1.02421310485522
 21
0.8100000000000002
 31
0
  0
LINE
  8
0
 10
-0.9765354353255563
 20
0.7923223304703365
 30
0
 11
-1.011890774384884
 21
0.8276776695296638
 31
0
  0
LINE
  8
0
 10
-1.011890774384884
 20
-0.7923223304703365
 30
0
 11
-0.9765354353255563
 21
-0.8276776695296638
 31
0
  0
TEXT
  8
0
 62
7
 10
-1.00921310485522
 20
-0.3273733032187225
 30
0
 40
0.05
  1
Durchmesser 1,62
 50
90
 41
0.9
  0
ENDBLK
  8
0
  0
ENDSEC
  0
SECTION
  2
ENTITIES
  0
POINT
  8
0
  6
DASHED
 10
0
 20
0
 30
0
  0
LINE
  8
0
 10
0
 20
0.8100000000000002
 30
0
 11
0
 21
0.8875000000000001
 31
0
  0
LINE
  8
0
 10
0
 20
-0.9704290035265802
 30
0
 11
0
 21
-0.8875000000000001
 31
0
  0
LINE
  8
0
 10
0
 20
-0.8875000000000001
 30
0
 11
0
 21
-0.8100000000000002
 31
0
  0
LINE
  8
0
 10
0
 20
-0.8100000000000002
 30
0
 11
0
 21
0.8100000000000002
 31
0
  0
LINE
  8
0
 10
0
 20
0.8875000000000001
 30
0
 11
0
 21
0.9533514236331213
 31
0
  0
LINE
  8
0
 10
0.9492045182436104
 20
0
 30
0
 11
-0.9577301958935894
 21
0
 31
0
  0
LINE
  8
0
  6
DASHED
 10
0.09495819743253014
 20
-0.01672696362478746
 30
0
 11
-0.02731198433202007
 21
0.8120408274907603
 31
0
  0
LINE
  8
0
  6
DASHED
 10
-0.3662184130791702
 20
0.7252863737323425
 30
0
 11
-0.4536033674273585
 21
0.6473247554355912
 31
0
  0
LINE
  8
0
 10
-0.2442229140291493
 20
0.2596450607146618
 30
0
 11
-0.6372329773916591
 21
0.5040737867858115
 31
0
  0
LINE
  8
0
 10
-0.1647303045660901
 20
0.1124600199477718
 30
0
 11
-0.7901132989428189
 21
0.1894128423146503
 31
0
  0
LINE
  8
0
 10
-0.1328111645727386
 20
0.05335993563932061
 30
0
 11
-0.796517465652869
 21
-0.1603626418774475
 31
0
  0
LINE
  8
0
 10
-0.04724644127998
 20
0.08091295596906277
 30
0
 11
-0.6552582329634897
 21
-0.4804090945574971
 31
0
  0
LINE
  8
0
 10
-0.07688841700088961
 20
0.05354721270404116
 30
0
 11
-0.3925231226741689
 21
-0.7113942986601178
 31
0
  0
LINE
  8
0
 10
-0.08091323773005932
 20
-0.04273199705296794
 30
0
 11
0.2890545443479405
 21
-0.759344270006539
 31
0
  0
LINE
  8
0
 10
-0.07205052849524873
 20
-0.05989869782244932
 30
0
 11
0.581541961856341
 21
-0.567419771069228
 31
0
  0
LINE
  8
0
 10
-0.04018638869505958
 20
-0.08464151948610743
 30
0
 11
0.7662194860678593
 21
-0.2703034390641296
 31
0
  0
LINE
  8
0
 10
-0.000872244318439698
 20
-0.09369296583584946
 30
0
 11
0.8088504402068303
 21
0.07692343841265027
 31
0
  0
LINE
  8
0
 10
0.03860360217606102
 20
-0.0853750230237274
 30
0
 11
0.7015316308352323
 21
0.4098897668125828
 31
0
  0
LINE
  8
0
 10
0.07092287097807093
 20
-0.06122972341515924
 30
0
 11
0.4856724903060002
 21
0.7067025414981799
 31
0
  0
LINE
  8
0
 10
0.327559876306952
 20
0.2636786077105899
 30
0
 11
0.3285867415228914
 21
0.4158494358483404
 31
0
  0
LINE
  8
0
 10
0.3285867415228914
 20
0.4158494358483404
 30
0
 11
0.4640526583083392
 21
0.441267911565872
 31
0
  0
LINE
  8
0
 10
0.4640526583083392
 20
0.441267911565872
 30
0
 11
0.327559876306952
 21
0.2636786077105899
 31
0
  0
LINE
  8
0
 10
-0.4856724903060184
 20
0.7067025414981799
 30
0
 11
-0.08091323773005932
 21
-0.04273199705296794
 31
0
  0
LINE
  8
0
  6
DASHED
 10
0.08757611961599106
 20
0.03330999745237204
 30
0
 11
-0.3662184130791702
 21
0.7252863737323425
 31
0
  0
LINE
  8
0
  6
DASHED
 10
-0.02731198433202007
 20
0.8120408274907603
 30
0
 11
-0.3574420280996801
 21
0.7119035525712206
 31
0
  0
LINE
  8
0
 10
-0.4536033674273585
 20
0.6473247554355912
 30
0
 11
-0.6236430404932689
 21
0.4956216597969104
 31
0
  0
LINE
  8
0
 10
-0.6372329773916591
 20
0.5040737867858115
 30
0
 11
-0.7742291977932201
 21
0.187458317766952
 31
0
  0
LINE
  8
0
 10
-0.7901132989428189
 20
0.1894128423146503
 30
0
 11
-0.7812838944656596
 21
-0.1554572219746697
 31
0
  0
LINE
  8
0
 10
-0.796517465652869
 20
-0.1603626418774475
 30
0
 11
-0.6434992866311187
 21
-0.4695531276871079
 31
0
  0
LINE
  8
0
 10
-0.6552582329634897
 20
-0.4804090945574971
 30
0
 11
-0.3864187483587102
 21
-0.6966003319927294
 31
0
  0
LINE
  8
0
 10
-0.09227633613372926
 20
0.01625455157820033
 30
0
 11
-0.05701961603906966
 21
-0.8104967695103588
 31
0
  0
LINE
  8
0
 10
-0.3925231226741689
 20
-0.7113942986601178
 30
0
 11
-0.05770148090604926
 21
-0.7945074012976475
 31
0
  0
LINE
  8
0
 10
-0.05701961603906966
 20
-0.8104967695103588
 30
0
 11
0.2817128486807105
 21
-0.7451237095299693
 31
0
  0
LINE
  8
0
 10
0.2890545443479405
 20
-0.759344270006539
 30
0
 11
0.5689014849405812
 21
-0.5576043149473481
 31
0
  0
LINE
  8
0
 10
0.581541961856341
 20
-0.567419771069228
 30
0
 11
0.7506235987295713
 21
-0.2667127380643396
 31
0
  0
LINE
  8
0
 10
0.7662194860678593
 20
-0.2703034390641296
 30
0
 11
0.7931904057771116
 21
0.0736237176368013
 31
0
  0
LINE
  8
0
 10
0.7015316308352323
 20
0.4098897668125828
 30
0
 11
0.4565533155931098
 21
0.6527867505062206
 31
0
  0
LINE
  8
0
 10
0.8088504402068303
 20
0.07692343841265027
 30
0
 11
0.6887106046349891
 21
0.4003113471772122
 31
0
  0
LINE
  8
0
  6
DASHED
 10
0.06545259059167076
 20
0.06704544012916083
 30
0
 11
-0.2442229140291493
 21
0.2596450607146618
 31
0
  0
LINE
  8
0
  6
DASHED
 10
0.03119505014515016
 20
0.08835157895429074
 30
0
 11
-0.1647303045660901
 21
0.1124600199477718
 31
0
  0
LINE
  8
0
  6
DASHED
 10
-0.008845624190538729
 20
0.09327854839111023
 30
0
 11
-0.1328111645727386
 21
0.05335993563932061
 31
0
  0
LINE
  8
0
 10
-1.07393684031581
 20
-1.379949566814979
 30
0
 11
-1.07393684031581
 21
-1.28988184556675
 31
0
  0
LINE
  8
0
 10
-1.0171855566671
 20
-1.28988184556675
 30
0
 11
-1.0171855566671
 21
-1.379949566814979
 31
0
  0
LINE
  8
0
 10
-1.0171855566671
 20
-1.379949566814979
 30
0
 11
-1.07393684031581
 21
-1.28988184556675
 31
0
  0
LINE
  8
0
 10
-0.98531039772867
 20
-1.379949566814979
 30
0
 11
-0.9361855566671002
 21
-1.379949566814979
 31
0
  0
LINE
  8
0
 10
-0.98531039772867
 20
-1.289881845566768
 30
0
 11
-0.98531039772867
 21
-1.379949566814979
 31
0
  0
LINE
  8
0
 10
-0.90797291406313
 20
-1.330829226856869
 30
0
 11
-0.90797291406313
 21
-1.289881845566768
 31
0
  0
LINE
  8
0
 10
-0.90797291406313
 20
-1.330829226856869
 30
0
 11
-0.8755945905664304
 21
-1.330829226856869
 31
0
  0
LINE
  8
0
 10
-0.8722961608453389
 20
-1.379949566814979
 30
0
 11
-0.90797291406313
 21
-1.379949566814979
 31
0
  0
LINE
  8
0
 10
-0.8628131753971303
 20
-1.375564179949579
 30
0
 11
-0.8722961608453389
 21
-1.379949566814979
 31
0
  0
LINE
  8
0
 10
-0.8588962901032591
 20
-1.371441142797979
 30
0
 11
-0.8628131753971303
 21
-1.375564179949579
 31
0
  0
LINE
  8
0
 10
-0.8551855566671002
 20
-1.36257661292257
 30
0
 11
-0.8588962901032591
 21
-1.371441142797979
 31
0
  0
LINE
  8
0
 10
-0.8553917085244505
 20
-1.350413653325788
 30
0
 11
-0.8551855566671002
 21
-1.36257661292257
 31
0
  0
LINE
  8
0
 10
-0.8591024419606201
 20
-1.339899908589989
 30
0
 11
-0.8553917085244505
 21
-1.350413653325788
 31
0
  0
LINE
  8
0
 10
-0.86405008654244
 20
-1.334746112150489
 30
0
 11
-0.8591024419606201
 21
-1.339899908589989
 31
0
  0
LINE
  8
0
 10
-0.8726089429741495
 20
-1.32963496781994
 30
0
 11
-0.86405008654244
 21
-1.334746112150489
 31
0
  0
LINE
  8
0
 10
-0.8726089429741495
 20
-1.32963496781994
 30
0
 11
-0.8755945905664304
 21
-1.330829226856869
 31
0
  0
LINE
  8
0
 10
-0.8755945905664304
 20
-1.330829226856869
 30
0
 11
-0.8726089429741495
 21
-1.32963496781994
 31
0
  0
LINE
  8
0
 10
-0.8694100348393186
 20
-1.328355404565988
 30
0
 11
-0.8726089429741495
 21
-1.32963496781994
 31
0
  0
LINE
  8
0
 10
-0.8636377828273598
 20
-1.324438519272069
 30
0
 11
-0.8694100348393186
 21
-1.328355404565988
 31
0
  0
LINE
  8
0
 10
-0.8588962901032591
 20
-1.315367837538979
 30
0
 11
-0.8636377828273598
 21
-1.324438519272069
 31
0
  0
LINE
  8
0
 10
-0.8595147456760387
 20
-1.306915611378638
 30
0
 11
-0.8588962901032591
 21
-1.315367837538979
 31
0
  0
LINE
  8
0
 10
-0.8615762642515803
 20
-1.298875688933487
 30
0
 11
-0.8595147456760387
 21
-1.306915611378638
 31
0
  0
LINE
  8
0
 10
-0.8675546681212398
 20
-1.29248498134868
 30
0
 11
-0.8615762642515803
 21
-1.298875688933487
 31
0
  0
LINE
  8
0
 10
-0.8776561091419592
 20
-1.289881845566768
 30
0
 11
-0.8675546681212398
 21
-1.29248498134868
 31
0
  0
LINE
  8
0
 10
-0.90797291406313
 20
-1.289881845566768
 30
0
 11
-0.8776561091419592
 21
-1.289881845566768
 31
0
  0
LINE
  8
0
 10
-0.90797291406313
 20
-1.379949566814979
 30
0
 11
-0.90797291406313
 21
-1.330829226856869
 31
0
  0
LINE
  8
0
 10
-0.7242415856411099
 20
-1.379949566814979
 30
0
 11
-0.6931855566671001
 21
-1.379949566814979
 31
0
  0
LINE
  8
0
 10
-0.7315404680261289
 20
-1.377998303496097
 30
0
 11
-0.7242415856411099
 21
-1.379949566814979
 31
0
  0
LINE
  8
0
 10
-0.7358339282531395
 20
-1.375565342701029
 30
0
 11
-0.7315404680261289
 21
-1.377998303496097
 31
0
  0
LINE
  8
0
 10
-0.7398411577991192
 20
-1.37127188247403
 30
0
 11
-0.7358339282531395
 21
-1.375565342701029
 31
0
  0
LINE
  8
0
 10
-0.7418447725720998
 20
-1.362112500656527
 30
0
 11
-0.7398411577991192
 21
-1.37127188247403
 31
0
  0
LINE
  8
0
 10
-0.7418447725720998
 20
-1.334348124522377
 30
0
 11
-0.7418447725720998
 21
-1.362112500656527
 31
0
  0
LINE
  8
0
 10
-0.73998427314113
 20
-1.325761204068698
 30
0
 11
-0.7418447725720998
 21
-1.334348124522377
 31
0
  0
LINE
  8
0
 10
-0.7359770435950687
 20
-1.320895282478188
 30
0
 11
-0.73998427314113
 21
-1.325761204068698
 31
0
  0
LINE
  8
0
 10
-0.7315404680261289
 20
-1.318748552364697
 30
0
 11
-0.7359770435950687
 21
-1.320895282478188
 31
0
  0
LINE
  8
0
 10
-0.7236691242761099
 20
-1.316806714230697
 30
0
 11
-0.7315404680261289
 21
-1.318748552364697
 31
0
  0
LINE
  8
0
 10
-0.6933286720060587
 20
-1.316806714230697
 30
0
 11
-0.7236691242761099
 21
-1.316806714230697
 31
0
  0
LINE
  8
0
 10
-0.6161505580816793
 20
-1.364256101957799
 30
0
 11
-0.616034827867059
 21
-1.316806714230697
 31
0
  0
LINE
  8
0
 10
-0.6202542212980788
 20
-1.373287366659428
 30
0
 11
-0.6161505580816793
 21
-1.364256101957799
 31
0
  0
LINE
  8
0
 10
-0.6261761769911302
 20
-1.37765480898368
 30
0
 11
-0.6202542212980788
 21
-1.373287366659428
 31
0
  0
LINE
  8
0
 10
-0.6343928905181201
 20
-1.379949566814979
 30
0
 11
-0.6261761769911302
 21
-1.37765480898368
 31
0
  0
LINE
  8
0
 10
-0.6464588752420987
 20
-1.379949566814979
 30
0
 11
-0.6343928905181201
 21
-1.379949566814979
 31
0
  0
LINE
  8
0
 10
-0.6546755887690688
 20
-1.377580784537498
 30
0
 11
-0.6464588752420987
 21
-1.379949566814979
 31
0
  0
LINE
  8
0
 10
-0.660819617800089
 20
-1.37299126887491
 30
0
 11
-0.6546755887690688
 21
-1.377580784537498
 31
0
  0
LINE
  8
0
 10
-0.6646688890031092
 20
-1.364182359780429
 30
0
 11
-0.660819617800089
 21
-1.37299126887491
 31
0
  0
LINE
  8
0
 10
-0.66474291344813
 20
-1.332425872372878
 30
0
 11
-0.6646688890031092
 21
-1.364182359780429
 31
0
  0
LINE
  8
0
 10
-0.6605975444621199
 20
-1.323616963278408
 30
0
 11
-0.66474291344813
 21
-1.332425872372878
 31
0
  0
LINE
  8
0
 10
-0.6546755887690688
 20
-1.319027447615808
 30
0
 11
-0.6605975444621199
 21
-1.323616963278408
 31
0
  0
LINE
  8
0
 10
-0.646310826352039
 20
-1.316806714230697
 30
0
 11
-0.6546755887690688
 21
-1.319027447615808
 31
0
  0
LINE
  8
0
 10
-0.616034827867059
 20
-1.316806714230697
 30
0
 11
-0.646310826352039
 21
-1.316806714230697
 31
0
  0
LINE
  8
0
 10
-0.6161828767600691
 20
-1.37750676009131
 30
0
 11
-0.6161505580816793
 21
-1.364256101957799
 31
0
  0
LINE
  8
0
 10
-0.6141101922670696
 20
-1.379949566814979
 30
0
 11
-0.6161828767600691
 21
-1.37750676009131
 31
0
  0
LINE
  8
0
 10
-0.6121855566671002
 20
-1.379949566814979
 30
0
 11
-0.6141101922670696
 21
-1.379949566814979
 31
0
  0
LINE
  8
0
 10
-0.5867213548976197
 20
-1.378395402930098
 30
0
 11
-0.5867213548976197
 21
-1.379295470263329
 31
0
  0
LINE
  8
0
 10
-0.5856212726005997
 20
-1.378395402930098
 30
0
 11
-0.5867213548976197
 21
-1.378395402930098
 31
0
  0
LINE
  8
0
 10
-0.5856212726005997
 20
-1.379295470263329
 30
0
 11
-0.5856212726005997
 21
-1.378395402930098
 31
0
  0
LINE
  8
0
 10
-0.5867213548976197
 20
-1.379295470263329
 30
0
 11
-0.5856212726005997
 21
-1.379295470263329
 31
0
  0
LINE
  8
0
 10
-0.5873455566671001
 20
-1.377789566814979
 30
0
 11
-0.5873455566671001
 21
-1.379949566814979
 31
0
  0
LINE
  8
0
 10
-0.5851855566671
 20
-1.377789566814979
 30
0
 11
-0.5873455566671001
 21
-1.377789566814979
 31
0
  0
LINE
  8
0
 10
-0.5851855566671
 20
-1.379949566814979
 30
0
 11
-0.5851855566671
 21
-1.377789566814979
 31
0
  0
LINE
  8
0
 10
-0.5873455566671001
 20
-1.379949566814979
 30
0
 11
-0.5851855566671
 21
-1.379949566814979
 31
0
  0
LINE
  8
0
 10
-0.4289690857141886
 20
-1.373384502778579
 30
0
 11
-0.4336773950998886
 21
-1.377915927598879
 31
0
  0
LINE
  8
0
 10
-0.4251133996829086
 20
-1.366521381642688
 30
0
 11
-0.4289690857141886
 21
-1.373384502778579
 31
0
  0
LINE
  8
0
 10
-0.4231855566671002
 20
-1.357653303770468
 30
0
 11
-0.4251133996829086
 21
-1.366521381642688
 31
0
  0
LINE
  8
0
 10
-0.4232626703879087
 20
-1.34400417521947
 30
0
 11
-0.4231855566671002
 21
-1.357653303770468
 31
0
  0
LINE
  8
0
 10
-0.4254989682859687
 20
-1.335213211067789
 30
0
 11
-0.4232626703879087
 21
-1.34400417521947
 31
0
  0
LINE
  8
0
 10
-0.4313596110538802
 20
-1.328658544814487
 30
0
 11
-0.4254989682859687
 21
-1.335213211067789
 31
0
  0
LINE
  8
0
 10
-0.4412925737588303
 20
-1.326574884383779
 30
0
 11
-0.4313596110538802
 21
-1.328658544814487
 31
0
  0
LINE
  8
0
 10
-0.4410469228342899
 20
-1.379949566814979
 30
0
 11
-0.4336773950998886
 21
-1.377915927598879
 31
0
  0
LINE
  8
0
 10
-0.4717999827182502
 20
-1.379949566814979
 30
0
 11
-0.4410469228342899
 21
-1.379949566814979
 31
0
  0
LINE
  8
0
 10
-0.4717999827182502
 20
-1.326574884383779
 30
0
 11
-0.4412925737588303
 21
-1.326574884383779
 31
0
  0
LINE
  8
0
 10
-0.4717999827182502
 20
-1.289881845566768
 30
0
 11
-0.4272904710638086
 21
-1.289881845566768
 31
0
  0
LINE
  8
0
 10
-0.4717999827182502
 20
-1.289881845566768
 30
0
 11
-0.4717999827182502
 21
-1.326574884383779
 31
0
  0
LINE
  8
0
 10
-0.3446310847442091
 20
-1.339203812730098
 30
0
 11
-0.3421855566671002
 21
-1.32875473821878
 31
0
  0
LINE
  8
0
 10
-0.3730111702477898
 20
-1.339303948199769
 30
0
 11
-0.3446310847442091
 21
-1.339203812730098
 31
0
  0
LINE
  8
0
 10
-0.3795873011450385
 20
-1.33752291274838
 30
0
 11
-0.3730111702477898
 21
-1.339303948199769
 31
0
  0
LINE
  8
0
 10
-0.38506741022598
 20
-1.33272781730257
 30
0
 11
-0.3795873011450385
 21
-1.33752291274838
 31
0
  0
LINE
  8
0
 10
-0.3891774920369189
 20
-1.325466672770159
 30
0
 11
-0.38506741022598
 21
-1.33272781730257
 31
0
  0
LINE
  8
0
 10
-0.3911461738970193
 20
-1.317520514602569
 30
0
 11
-0.3891774920369189
 21
-1.325466672770159
 31
0
  0
LINE
  8
0
 10
-0.3911461738970193
 20
-1.31176640006767
 30
0
 11
-0.3911461738970193
 21
-1.317520514602569
 31
0
  0
LINE
  8
0
 10
-0.3886294811288499
 20
-1.303546236446138
 30
0
 11
-0.3911461738970193
 21
-1.31176640006767
 31
0
  0
LINE
  8
0
 10
-0.3853414156799299
 20
-1.296970105548658
 30
0
 11
-0.3886294811288499
 21
-1.303546236446138
 31
0
  0
LINE
  8
0
 10
-0.3791762929639899
 20
-1.292860023738038
 30
0
 11
-0.3853414156799299
 21
-1.296970105548658
 31
0
  0
LINE
  8
0
 10
-0.3730111702477898
 20
-1.289881845566768
 30
0
 11
-0.3791762929639899
 21
-1.292860023738038
 31
0
  0
LINE
  8
0
 10
-0.3604069193611996
 20
-1.289881845566768
 30
0
 11
-0.3730111702477898
 21
-1.289881845566768
 31
0
  0
LINE
  8
0
 10
-0.3542417966453595
 20
-1.29217501010287
 30
0
 11
-0.3604069193611996
 21
-1.289881845566768
 31
0
  0
LINE
  8
0
 10
-0.3487616875643289
 20
-1.296970105548658
 30
0
 11
-0.3542417966453595
 21
-1.29217501010287
 31
0
  0
LINE
  8
0
 10
-0.3445146030262895
 20
-1.30313522826487
 30
0
 11
-0.3487616875643289
 21
-1.296970105548658
 31
0
  0
LINE
  8
0
 10
-0.3423225593939296
 20
-1.311492394613488
 30
0
 11
-0.3445146030262895
 21
-1.30313522826487
 31
0
  0
LINE
  8
0
 10
-0.3421855566671002
 20
-1.32875473821878
 30
0
 11
-0.3423225593939296
 21
-1.311492394613488
 31
0
  0
LINE
  8
0
 10
-0.3467066466587294
 20
-1.348072122729369
 30
0
 11
-0.3446310847442091
 21
-1.339203812730098
 31
0
  0
LINE
  8
0
 10
-0.3525977639209796
 20
-1.35779931634837
 30
0
 11
-0.3467066466587294
 21
-1.348072122729369
 31
0
  0
LINE
  8
0
 10
-0.3667090448045001
 20
-1.371225583596679
 30
0
 11
-0.3525977639209796
 21
-1.35779931634837
 31
0
  0
LINE
  8
0
 10
-0.3849304074989486
 20
-1.379949566814979
 30
0
 11
-0.3667090448045001
 21
-1.371225583596679
 31
0
  0
LINE
  8
0
 10
-0.2112415856411099
 20
-1.379949566814979
 30
0
 11
-0.1801855566671002
 21
-1.379949566814979
 31
0
  0
LINE
  8
0
 10
-0.218540468026129
 20
-1.377998303496097
 30
0
 11
-0.2112415856411099
 21
-1.379949566814979
 31
0
  0
LINE
  8
0
 10
-0.2228339282531397
 20
-1.375565342701029
 30
0
 11
-0.218540468026129
 21
-1.377998303496097
 31
0
  0
LINE
  8
0
 10
-0.2268411577991192
 20
-1.37127188247403
 30
0
 11
-0.2228339282531397
 21
-1.375565342701029
 31
0
  0
LINE
  8
0
 10
-0.2288447725720998
 20
-1.362112500656527
 30
0
 11
-0.2268411577991192
 21
-1.37127188247403
 31
0
  0
LINE
  8
0
 10
-0.2288447725720998
 20
-1.334348124522377
 30
0
 11
-0.2288447725720998
 21
-1.362112500656527
 31
0
  0
LINE
  8
0
 10
-0.22698427314113
 20
-1.325761204068698
 30
0
 11
-0.2288447725720998
 21
-1.334348124522377
 31
0
  0
LINE
  8
0
 10
-0.2229770435950686
 20
-1.320895282478188
 30
0
 11
-0.22698427314113
 21
-1.325761204068698
 31
0
  0
LINE
  8
0
 10
-0.218540468026129
 20
-1.318748552364697
 30
0
 11
-0.2229770435950686
 21
-1.320895282478188
 31
0
  0
LINE
  8
0
 10
-0.2106691242761099
 20
-1.316806714230697
 30
0
 11
-0.218540468026129
 21
-1.318748552364697
 31
0
  0
LINE
  8
0
 10
-0.1803286720060587
 20
-1.316806714230697
 30
0
 11
-0.2106691242761099
 21
-1.316806714230697
 31
0
  0
LINE
  8
0
 10
-0.1282102077130585
 20
-1.379949566814979
 30
0
 11
-0.1282102077130585
 21
-1.316806714230697
 31
0
  0
LINE
  8
0
 10
-0.09918555666710016
 20
-1.327703703961328
 30
0
 11
-0.09918555666710016
 21
-1.379949566814979
 31
0
  0
LINE
  8
0
 10
-0.1024330700711198
 20
-1.32262946426803
 30
0
 11
-0.09918555666710016
 21
-1.327703703961328
 31
0
  0
LINE
  8
0
 10
-0.1056805834750685
 20
-1.31897601168881
 30
0
 11
-0.1024330700711198
 21
-1.32262946426803
 31
0
  0
LINE
  8
0
 10
-0.1117696711090903
 20
-1.316806714230697
 30
0
 11
-0.1056805834750685
 21
-1.31897601168881
 31
0
  0
LINE
  8
0
 10
-0.1558140716470898
 20
-1.316806714230697
 30
0
 11
-0.1117696711090903
 21
-1.316806714230697
 31
0
  0
LINE
  8
0
 10
-0.1566259499981188
 20
-1.379949566814979
 30
0
 11
-0.1558140716470898
 21
-1.316806714230697
 31
0
  0
LINE
  8
0
 10
0.04506814106287129
 20
-1.316806714230697
 30
0
 11
0.0138553251147805
 21
-1.316806714230697
 31
0
  0
LINE
  8
0
 10
0.0520807927668302
 20
-1.319177898387388
 30
0
 11
0.04506814106287129
 21
-1.316806714230697
 31
0
  0
LINE
  8
0
 10
0.05651736833586983
 20
-1.321467743841738
 30
0
 11
0.0520807927668302
 21
-1.319177898387388
 31
0
  0
LINE
  8
0
 10
0.05980902117483129
 20
-1.32561808872789
 30
0
 11
0.05651736833586983
 21
-1.321467743841738
 31
0
  0
LINE
  8
0
 10
0.06281444333289983
 20
-1.334491239863499
 30
0
 11
0.05980902117483129
 21
-1.32561808872789
 31
0
  0
LINE
  8
0
 10
0.06281444333289983
 20
-1.361969385315719
 30
0
 11
0.06281444333289983
 21
-1.334491239863499
 31
0
  0
LINE
  8
0
 10
0.06081082856281137
 20
-1.370985651792398
 30
0
 11
0.06281444333289983
 21
-1.361969385315719
 31
0
  0
LINE
  8
0
 10
0.05594490697086986
 20
-1.37527911201938
 30
0
 11
0.06081082856281137
 21
-1.370985651792398
 31
0
  0
LINE
  8
0
 10
0.0526532541318211
 20
-1.377568957473708
 30
0
 11
0.05594490697086986
 21
-1.37527911201938
 31
0
  0
LINE
  8
0
 10
0.04449567969779127
 20
-1.379949566814979
 30
0
 11
0.0526532541318211
 21
-1.377568957473708
 31
0
  0
LINE
  8
0
 10
0.01415522742782014
 20
-1.379949566814979
 30
0
 11
0.04449567969779127
 21
-1.379949566814979
 31
0
  0
LINE
  8
0
 10
0.01372588140483094
 20
-1.289553022821678
 30
0
 11
0.01415522742782014
 21
-1.379949566814979
 31
0
  0
LINE
  8
0
 10
0.1438144433328998
 20
-1.348230312589309
 30
0
 11
0.09529834276695148
 21
-1.348373427930059
 31
0
  0
LINE
  8
0
 10
0.1438144433328998
 20
-1.334634355203998
 30
0
 11
0.1438144433328998
 21
-1.348230312589309
 31
0
  0
LINE
  8
0
 10
0.1422401745829902
 20
-1.326190550091087
 30
0
 11
0.1438144433328998
 21
-1.334634355203998
 31
0
  0
LINE
  8
0
 10
0.1382329450370198
 20
-1.321897089864109
 30
0
 11
0.1422401745829902
 21
-1.326190550091087
 31
0
  0
LINE
  8
0
 10
0.1333670234479705
 20
-1.318748552364428
 30
0
 11
0.1382329450370198
 21
-1.321897089864109
 31
0
  0
LINE
  8
0
 10
0.1259250257209405
 20
-1.316806714230697
 30
0
 11
0.1333670234479705
 21
-1.318748552364428
 31
0
  0
LINE
  8
0
 10
0.1133308757209998
 20
-1.316806714230697
 30
0
 11
0.1259250257209405
 21
-1.316806714230697
 31
0
  0
LINE
  8
0
 10
0.1054595319710006
 20
-1.318748552364428
 30
0
 11
0.1133308757209998
 21
-1.316806714230697
 31
0
  0
LINE
  8
0
 10
0.101595417766961
 20
-1.321610859182219
 30
0
 11
0.1054595319710006
 21
-1.318748552364428
 31
0
  0
LINE
  8
0
 10
0.09773130356300135
 20
-1.325331858045669
 30
0
 11
0.101595417766961
 21
-1.321610859182219
 31
0
  0
LINE
  8
0
 10
0.09529834276695148
 20
-1.33477747054481
 30
0
 11
0.09773130356300135
 21
-1.325331858045669
 31
0
  0
LINE
  8
0
 10
0.09529834276695148
 20
-1.361396923951928
 30
0
 11
0.09529834276695148
 21
-1.33477747054481
 31
0
  0
LINE
  8
0
 10
0.09801753424693016
 20
-1.37055630576938
 30
0
 11
0.09529834276695148
 21
-1.361396923951928
 31
0
  0
LINE
  8
0
 10
0.1007367257239512
 20
-1.374849765996139
 30
0
 11
0.09801753424693016
 21
-1.37055630576938
 31
0
  0
LINE
  8
0
 10
0.1056026473129314
 20
-1.377568957473079
 30
0
 11
0.1007367257239512
 21
-1.374849765996139
 31
0
  0
LINE
  8
0
 10
0.1139033370859215
 20
-1.379949566814979
 30
0
 11
0.1056026473129314
 21
-1.377568957473079
 31
0
  0
LINE
  8
0
 10
0.1438144433328998
 20
-1.379949566814979
 30
0
 11
0.1139033370859215
 21
-1.379949566814979
 31
0
  0
LINE
  8
0
 10
0.1703947690788609
 20
-1.379949566814979
 30
0
 11
0.1703947690788609
 21
-1.316806714230697
 31
0
  0
LINE
  8
0
 10
0.1708144433328998
 20
-1.289743229059339
 30
0
 11
0.1708144433328998
 21
-1.29449953725488
 31
0
  0
LINE
  8
0
 10
0.3245105446077414
 20
-1.294437626662289
 30
0
 11
0.3301921595247713
 21
-1.298917361500538
 31
0
  0
LINE
  8
0
 10
0.3190474533414908
 20
-1.292580175631469
 30
0
 11
0.3245105446077414
 21
-1.294437626662289
 31
0
  0
LINE
  8
0
 10
0.3083397944589797
 20
-1.289881845566768
 30
0
 11
0.3190474533414908
 21
-1.292580175631469
 31
0
  0
LINE
  8
0
 10
0.3001451575593801
 20
-1.289881845566768
 30
0
 11
0.3083397944589797
 21
-1.289881845566768
 31
0
  0
LINE
  8
0
 10
0.2862689057424814
 20
-1.294546888487439
 30
0
 11
0.3001451575593801
 21
-1.289881845566768
 31
0
  0
LINE
  8
0
 10
0.2797131962226795
 20
-1.299135885151278
 30
0
 11
0.2862689057424814
 21
-1.294546888487439
 31
0
  0
LINE
  8
0
 10
0.2780742688428709
 20
-1.305910118321768
 30
0
 11
0.2797131962226795
 21
-1.299135885151278
 31
0
  0
LINE
  8
0
 10
0.277746483366971
 20
-1.310936162286987
 30
0
 11
0.2780742688428709
 21
-1.305910118321768
 31
0
  0
LINE
  8
0
 10
0.2799317198733715
 20
-1.317164086330558
 30
0
 11
0.277746483366971
 21
-1.310936162286987
 31
0
  0
LINE
  8
0
 10
0.2852855493145016
 20
-1.320988250217059
 30
0
 11
0.2799317198733715
 21
-1.317164086330558
 31
0
  0
LINE
  8
0
 10
0.3202493334199008
 20
-1.337486785841778
 30
0
 11
0.2852855493145016
 21
-1.320988250217059
 31
0
  0
LINE
  8
0
 10
0.32614947198763
 20
-1.34185725885518
 30
0
 11
0.3202493334199008
 21
-1.337486785841778
 31
0
  0
LINE
  8
0
 10
0.3303014213502594
 20
-1.34841296837468
 30
0
 11
0.32614947198763
 21
-1.34185725885518
 31
0
  0
LINE
  8
0
 10
0.3322681342063099
 20
-1.354968677894478
 30
0
 11
0.3303014213502594
 21
-1.34841296837468
 31
0
  0
LINE
  8
0
 10
0.3328144433329016
 20
-1.360213245510389
 30
0
 11
0.3322681342063099
 21
-1.354968677894478
 31
0
  0
LINE
  8
0
 10
0.3305199450009513
 20
-1.366113384078068
 30
0
 11
0.3328144433329016
 21
-1.360213245510389
 31
0
  0
LINE
  8
0
 10
0.3268050429397099
 20
-1.373215402724469
 30
0
 11
0.3305199450009513
 21
-1.366113384078068
 31
0
  0
LINE
  8
0
 10
0.3206863807212812
 20
-1.377585875737568
 30
0
 11
0.3268050429397099
 21
-1.373215402724469
 31
0
  0
LINE
  8
0
 10
0.3108528164416293
 20
-1.379949566814979
 30
0
 11
0.3206863807212812
 21
-1.377585875737568
 31
0
  0
LINE
  8
0
 10
0.2978506592274916
 20
-1.379949566814979
 30
0
 11
0.3108528164416293
 21
-1.379949566814979
 31
0
  0
LINE
  8
0
 10
0.2883448804236596
 20
-1.377804399388289
 30
0
 11
0.2978506592274916
 21
-1.379949566814979
 31
0
  0
LINE
  8
0
 10
0.2799317198733715
 20
-1.37354318820038
 30
0
 11
0.2883448804236596
 21
-1.377804399388289
 31
0
  0
LINE
  8
0
 10
0.2756969488803716
 20
-1.368735667885878
 30
0
 11
0.2799317198733715
 21
-1.37354318820038
 31
0
  0
LINE
  8
0
 10
0.3608122105098719
 20
-1.379949566814979
 30
0
 11
0.3608122105098719
 21
-1.289673545394988
 31
0
  0
LINE
  8
0
 10
0.3532839842928315
 20
-1.316806714230697
 30
0
 11
0.3733144433329016
 21
-1.316806714230697
 31
0
  0
LINE
  8
0
 10
0.4543144433329016
 20
-1.348230312589309
 30
0
 11
0.4057983427669515
 21
-1.348373427930059
 31
0
  0
LINE
  8
0
 10
0.4543144433329016
 20
-1.334634355203998
 30
0
 11
0.4543144433329016
 21
-1.348230312589309
 31
0
  0
LINE
  8
0
 10
0.4527401745829902
 20
-1.326190550091087
 30
0
 11
0.4543144433329016
 21
-1.334634355203998
 31
0
  0
LINE
  8
0
 10
0.4487329450370217
 20
-1.321897089864109
 30
0
 11
0.4527401745829902
 21
-1.326190550091087
 31
0
  0
LINE
  8
0
 10
0.4438670234479705
 20
-1.318748552364428
 30
0
 11
0.4487329450370217
 21
-1.321897089864109
 31
0
  0
LINE
  8
0
 10
0.4364250257209406
 20
-1.316806714230697
 30
0
 11
0.4438670234479705
 21
-1.318748552364428
 31
0
  0
LINE
  8
0
 10
0.4238308757210018
 20
-1.316806714230697
 30
0
 11
0.4364250257209406
 21
-1.316806714230697
 31
0
  0
LINE
  8
0
 10
0.4159595319710007
 20
-1.318748552364428
 30
0
 11
0.4238308757210018
 21
-1.316806714230697
 31
0
  0
LINE
  8
0
 10
0.412095417766961
 20
-1.321610859182219
 30
0
 11
0.4159595319710007
 21
-1.318748552364428
 31
0
  0
LINE
  8
0
 10
0.4082313035630014
 20
-1.325331858045669
 30
0
 11
0.412095417766961
 21
-1.321610859182219
 31
0
  0
LINE
  8
0
 10
0.4057983427669515
 20
-1.33477747054481
 30
0
 11
0.4082313035630014
 21
-1.325331858045669
 31
0
  0
LINE
  8
0
 10
0.4057983427669515
 20
-1.361396923951928
 30
0
 11
0.4057983427669515
 21
-1.33477747054481
 31
0
  0
LINE
  8
0
 10
0.408517534246932
 20
-1.37055630576938
 30
0
 11
0.4057983427669515
 21
-1.361396923951928
 31
0
  0
LINE
  8
0
 10
0.4112367257239513
 20
-1.374849765996139
 30
0
 11
0.408517534246932
 21
-1.37055630576938
 31
0
  0
LINE
  8
0
 10
0.4161026473129296
 20
-1.377568957473079
 30
0
 11
0.4112367257239513
 21
-1.374849765996139
 31
0
  0
LINE
  8
0
 10
0.4244033370859199
 20
-1.379949566814979
 30
0
 11
0.4161026473129296
 21
-1.377568957473079
 31
0
  0
LINE
  8
0
 10
0.4543144433329016
 20
-1.379949566814979
 30
0
 11
0.4244033370859199
 21
-1.379949566814979
 31
0
  0
LINE
  8
0
 10
0.4808947690788609
 20
-1.379949566814979
 30
0
 11
0.4808947690788609
 21
-1.316806714230697
 31
0
  0
LINE
  8
0
 10
0.4813144433329015
 20
-1.289743229059339
 30
0
 11
0.4813144433329015
 21
-1.29449953725488
 31
0
  0
LINE
  8
0
 10
0.5619085041559102
 20
-1.32851558231231
 30
0
 11
0.5623144433329017
 21
-1.379949566814979
 31
0
  0
LINE
  8
0
 10
0.5592698995159315
 20
-1.323847281794478
 30
0
 11
0.5619085041559102
 21
-1.32851558231231
 31
0
  0
LINE
  8
0
 10
0.5558194165249315
 20
-1.3199908596274
 30
0
 11
0.5592698995159315
 21
-1.323847281794478
 31
0
  0
LINE
  8
0
 10
0.5493243897168815
 20
-1.316806714230697
 30
0
 11
0.5558194165249315
 21
-1.3199908596274
 31
0
  0
LINE
  8
0
 10
0.5133987726889009
 20
-1.316806714230697
 30
0
 11
0.5493243897168815
 21
-1.316806714230697
 31
0
  0
LINE
  8
0
 10
0.5127898639249415
 20
-1.379949566814979
 30
0
 11
0.5133987726889009
 21
-1.316806714230697
 31
0
  0
LINE
  8
0
 10
0.638474869336902
 20
-1.323550563369998
 30
0
 11
0.6427767128899413
 21
-1.330406626531279
 31
0
  0
LINE
  8
0
 10
0.6324254018419397
 20
-1.318979854595527
 30
0
 11
0.638474869336902
 21
-1.323550563369998
 31
0
  0
LINE
  8
0
 10
0.6228806864599301
 20
-1.316806714230697
 30
0
 11
0.6324254018419397
 21
-1.318979854595527
 31
0
  0
LINE
  8
0
 10
0.6152180276329
 20
-1.316806714230697
 30
0
 11
0.6228806864599301
 21
-1.316806714230697
 31
0
  0
LINE
  8
0
 10
0.606076610083952
 20
-1.318979854595527
 30
0
 11
0.6152180276329
 21
-1.316806714230697
 31
0
  0
LINE
  8
0
 10
0.6009681708649496
 20
-1.323281698147879
 30
0
 11
0.606076610083952
 21
-1.318979854595527
 31
0
  0
LINE
  8
0
 10
0.5965318947019496
 20
-1.327583541700318
 30
0
 11
0.6009681708649496
 21
-1.323281698147879
 31
0
  0
LINE
  8
0
 10
0.5941121077039115
 20
-1.332154250474479
 30
0
 11
0.5965318947019496
 21
-1.327583541700318
 31
0
  0
LINE
  8
0
 10
0.5938432424808907
 20
-1.337128257082048
 30
0
 11
0.5941121077039115
 21
-1.332154250474479
 31
0
  0
LINE
  8
0
 10
0.5959941642589711
 20
-1.341833398467428
 30
0
 11
0.5938432424808907
 21
-1.337128257082048
 31
0
  0
LINE
  8
0
 10
0.6000271425888913
 20
-1.343715455021469
 30
0
 11
0.5959941642589711
 21
-1.341833398467428
 31
0
  0
LINE
  8
0
 10
0.6361895149489412
 20
-1.353394603014098
 30
0
 11
0.6000271425888913
 21
-1.343715455021469
 31
0
  0
LINE
  8
0
 10
0.6403569258919797
 20
-1.35487336173519
 30
0
 11
0.6361895149489412
 21
-1.353394603014098
 31
0
  0
LINE
  8
0
 10
0.6433144433329017
 20
-1.359981800953617
 30
0
 11
0.6403569258919797
 21
-1.35487336173519
 31
0
  0
LINE
  8
0
 10
0.6426422802768994
 20
-1.364283644505987
 30
0
 11
0.6433144433329017
 21
-1.359981800953617
 31
0
  0
LINE
  8
0
 10
0.6410290889449297
 20
-1.36871992066934
 30
0
 11
0.6426422802768994
 21
-1.364283644505987
 31
0
  0
LINE
  8
0
 10
0.6375338410609492
 20
-1.372887331610789
 30
0
 11
0.6410290889449297
 21
-1.36871992066934
 31
0
  0
LINE
  8
0
 10
0.6312155083429516
 20
-1.37786133821803
 30
0
 11
0.6375338410609492
 21
-1.372887331610789
 31
0
  0
LINE
  8
0
 10
0.6234184169029814
 20
-1.379949566814979
 30
0
 11
0.6312155083429516
 21
-1.37786133821803
 31
0
  0
LINE
  8
0
 10
0.6141425667439817
 20
-1.379949566814979
 30
0
 11
0.6234184169029814
 21
-1.379949566814979
 31
0
  0
LINE
  8
0
 10
0.6045978513619612
 20
-1.37799577082921
 30
0
 11
0.6141425667439817
 21
-1.379949566814979
 31
0
  0
LINE
  8
0
 10
0.5985483838669117
 20
-1.3735594946659
 30
0
 11
0.6045978513619612
 21
-1.37799577082921
 31
0
  0
LINE
  8
0
 10
0.5941121077039115
 20
-1.36656899889313
 30
0
 11
0.5985483838669117
 21
-1.3735594946659
 31
0
  0
LINE
  8
0
 10
0.671312210509872
 20
-1.379949566814979
 30
0
 11
0.671312210509872
 21
-1.289673545394988
 31
0
  0
LINE
  8
0
 10
0.6637839842928317
 20
-1.316806714230697
 30
0
 11
0.6838144433329018
 21
-1.316806714230697
 31
0
  0
LINE
  8
0
 10
0.7339708246548815
 20
-1.379949566814979
 30
0
 11
0.7648144433329017
 21
-1.379949566814979
 31
0
  0
LINE
  8
0
 10
0.7267385278639393
 20
-1.377441764560608
 30
0
 11
0.7339708246548815
 21
-1.379949566814979
 31
0
  0
LINE
  8
0
 10
0.7216333771849294
 20
-1.375740047667998
 30
0
 11
0.7267385278639393
 21
-1.377441764560608
 31
0
  0
LINE
  8
0
 10
0.7184426580139097
 20
-1.371485755437119
 30
0
 11
0.7216333771849294
 21
-1.375740047667998
 31
0
  0
LINE
  8
0
 10
0.7158900826729206
 20
-1.36233902714018
 30
0
 11
0.7184426580139097
 21
-1.371485755437119
 31
0
  0
LINE
  8
0
 10
0.7158900826729206
 20
-1.316806714230697
 30
0
 11
0.7158900826729206
 21
-1.36233902714018
 31
0
  0
LINE
  8
0
 10
0.7648144433329017
 20
-1.316806714230697
 30
0
 11
0.7648144433329017
 21
-1.379949566814979
 31
0
  0
LINE
  8
0
 10
0.780841720039871
 20
-1.321324628500577
 30
0
 11
0.8048850973099306
 21
-1.321324628500577
 31
0
  0
LINE
  8
0
 10
0.7889992944709502
 20
-1.30529571031993
 30
0
 11
0.7891424098129519
 21
-1.379949566814979
 31
0
  0
LINE
  8
0
 10
0.7912891399249001
 20
-1.296851905207048
 30
0
 11
0.7889992944709502
 21
-1.30529571031993
 31
0
  0
LINE
  8
0
 10
0.7954394848129615
 20
-1.291699752934888
 30
0
 11
0.7912891399249001
 21
-1.296851905207048
 31
0
  0
LINE
  8
0
 10
0.8004485217439415
 20
-1.289982368844088
 30
0
 11
0.7954394848129615
 21
-1.291699752934888
 31
0
  0
LINE
  8
0
 10
0.8053144433329017
 20
-1.290125484184908
 30
0
 11
0.8004485217439415
 21
-1.289982368844088
 31
0
  0
LINE
  8
0
 10
0.8863144433329018
 20
-1.348230312589309
 30
0
 11
0.8377983427669518
 21
-1.348373427930059
 31
0
  0
LINE
  8
0
 10
0.8863144433329018
 20
-1.334634355203998
 30
0
 11
0.8863144433329018
 21
-1.348230312589309
 31
0
  0
LINE
  8
0
 10
0.8847401745829901
 20
-1.326190550091087
 30
0
 11
0.8863144433329018
 21
-1.334634355203998
 31
0
  0
LINE
  8
0
 10
0.8807329450370217
 20
-1.321897089864109
 30
0
 11
0.8847401745829901
 21
-1.326190550091087
 31
0
  0
LINE
  8
0
 10
0.8758670234479706
 20
-1.318748552364428
 30
0
 11
0.8807329450370217
 21
-1.321897089864109
 31
0
  0
LINE
  8
0
 10
0.8684250257209406
 20
-1.316806714230697
 30
0
 11
0.8758670234479706
 21
-1.318748552364428
 31
0
  0
LINE
  8
0
 10
0.8558308757210016
 20
-1.316806714230697
 30
0
 11
0.8684250257209406
 21
-1.316806714230697
 31
0
  0
LINE
  8
0
 10
0.8479595319710006
 20
-1.318748552364428
 30
0
 11
0.8558308757210016
 21
-1.316806714230697
 31
0
  0
LINE
  8
0
 10
0.8440954177669611
 20
-1.321610859182219
 30
0
 11
0.8479595319710006
 21
-1.318748552364428
 31
0
  0
LINE
  8
0
 10
0.8402313035630015
 20
-1.325331858045669
 30
0
 11
0.8440954177669611
 21
-1.321610859182219
 31
0
  0
LINE
  8
0
 10
0.8377983427669518
 20
-1.33477747054481
 30
0
 11
0.8402313035630015
 21
-1.325331858045669
 31
0
  0
LINE
  8
0
 10
0.8377983427669518
 20
-1.361396923951928
 30
0
 11
0.8377983427669518
 21
-1.33477747054481
 31
0
  0
LINE
  8
0
 10
0.8405175342469321
 20
-1.37055630576938
 30
0
 11
0.8377983427669518
 21
-1.361396923951928
 31
0
  0
LINE
  8
0
 10
0.8432367257239511
 20
-1.374849765996139
 30
0
 11
0.8405175342469321
 21
-1.37055630576938
 31
0
  0
LINE
  8
0
 10
0.8481026473129296
 20
-1.377568957473079
 30
0
 11
0.8432367257239511
 21
-1.374849765996139
 31
0
  0
LINE
  8
0
 10
0.8564033370859199
 20
-1.379949566814979
 30
0
 11
0.8481026473129296
 21
-1.377568957473079
 31
0
  0
LINE
  8
0
 10
0.8863144433329018
 20
-1.379949566814979
 30
0
 11
0.8564033370859199
 21
-1.379949566814979
 31
0
  0
LINE
  8
0
 10
0.9669085041559101
 20
-1.32851558231231
 30
0
 11
0.9673144433329016
 21
-1.379949566814979
 31
0
  0
LINE
  8
0
 10
0.9642698995159316
 20
-1.323847281794478
 30
0
 11
0.9669085041559101
 21
-1.32851558231231
 31
0
  0
LINE
  8
0
 10
0.9608194165249316
 20
-1.3199908596274
 30
0
 11
0.9642698995159316
 21
-1.323847281794478
 31
0
  0
LINE
  8
0
 10
0.9543243897168815
 20
-1.316806714230697
 30
0
 11
0.9608194165249316
 21
-1.3199908596274
 31
0
  0
LINE
  8
0
 10
0.9183987726889009
 20
-1.316806714230697
 30
0
 11
0.9543243897168815
 21
-1.316806714230697
 31
0
  0
LINE
  8
0
 10
0.9177898639249414
 20
-1.379949566814979
 30
0
 11
0.9183987726889009
 21
-1.316806714230697
 31
0
  0
LINE
  8
0
 10
-1.07393684031581
 20
-1.23987702627738
 30
0
 11
-1.07393684031581
 21
-1.14980930502915
 31
0
  0
LINE
  8
0
 10
-1.0171855566671
 20
-1.14980930502915
 30
0
 11
-1.0171855566671
 21
-1.23987702627738
 31
0
  0
LINE
  8
0
 10
-1.0171855566671
 20
-1.23987702627738
 30
0
 11
-1.07393684031581
 21
-1.14980930502915
 31
0
  0
LINE
  8
0
 10
-0.98531039772867
 20
-1.23987702627738
 30
0
 11
-0.9361855566671002
 21
-1.23987702627738
 31
0
  0
LINE
  8
0
 10
-0.98531039772867
 20
-1.149809305029168
 30
0
 11
-0.98531039772867
 21
-1.23987702627738
 31
0
  0
LINE
  8
0
 10
-0.90797291406313
 20
-1.19075668631927
 30
0
 11
-0.90797291406313
 21
-1.149809305029168
 31
0
  0
LINE
  8
0
 10
-0.90797291406313
 20
-1.19075668631927
 30
0
 11
-0.8755945905664304
 21
-1.19075668631927
 31
0
  0
LINE
  8
0
 10
-0.8722961608453389
 20
-1.23987702627738
 30
0
 11
-0.90797291406313
 21
-1.23987702627738
 31
0
  0
LINE
  8
0
 10
-0.8628131753971303
 20
-1.235491639411979
 30
0
 11
-0.8722961608453389
 21
-1.23987702627738
 31
0
  0
LINE
  8
0
 10
-0.8588962901032591
 20
-1.23136860226038
 30
0
 11
-0.8628131753971303
 21
-1.235491639411979
 31
0
  0
LINE
  8
0
 10
-0.8551855566671002
 20
-1.222504072384967
 30
0
 11
-0.8588962901032591
 21
-1.23136860226038
 31
0
  0
LINE
  8
0
 10
-0.8553917085244505
 20
-1.210341112788188
 30
0
 11
-0.8551855566671002
 21
-1.222504072384967
 31
0
  0
LINE
  8
0
 10
-0.8591024419606201
 20
-1.199827368052389
 30
0
 11
-0.8553917085244505
 21
-1.210341112788188
 31
0
  0
LINE
  8
0
 10
-0.86405008654244
 20
-1.19467357161289
 30
0
 11
-0.8591024419606201
 21
-1.199827368052389
 31
0
  0
LINE
  8
0
 10
-0.8726089429741495
 20
-1.189562427282337
 30
0
 11
-0.86405008654244
 21
-1.19467357161289
 31
0
  0
LINE
  8
0
 10
-0.8726089429741495
 20
-1.189562427282337
 30
0
 11
-0.8755945905664304
 21
-1.19075668631927
 31
0
  0
LINE
  8
0
 10
-0.8755945905664304
 20
-1.19075668631927
 30
0
 11
-0.8726089429741495
 21
-1.189562427282337
 31
0
  0
LINE
  8
0
 10
-0.8694100348393186
 20
-1.188282864028388
 30
0
 11
-0.8726089429741495
 21
-1.189562427282337
 31
0
  0
LINE
  8
0
 10
-0.8636377828273598
 20
-1.18436597873447
 30
0
 11
-0.8694100348393186
 21
-1.188282864028388
 31
0
  0
LINE
  8
0
 10
-0.8588962901032591
 20
-1.175295297001379
 30
0
 11
-0.8636377828273598
 21
-1.18436597873447
 31
0
  0
LINE
  8
0
 10
-0.8595147456760387
 20
-1.166843070841038
 30
0
 11
-0.8588962901032591
 21
-1.175295297001379
 31
0
  0
LINE
  8
0
 10
-0.8615762642515803
 20
-1.158803148395888
 30
0
 11
-0.8595147456760387
 21
-1.166843070841038
 31
0
  0
LINE
  8
0
 10
-0.8675546681212398
 20
-1.152412440811087
 30
0
 11
-0.8615762642515803
 21
-1.158803148395888
 31
0
  0
LINE
  8
0
 10
-0.8776561091419592
 20
-1.149809305029168
 30
0
 11
-0.8675546681212398
 21
-1.152412440811087
 31
0
  0
LINE
  8
0
 10
-0.90797291406313
 20
-1.149809305029168
 30
0
 11
-0.8776561091419592
 21
-1.149809305029168
 31
0
  0
LINE
  8
0
 10
-0.90797291406313
 20
-1.23987702627738
 30
0
 11
-0.90797291406313
 21
-1.19075668631927
 31
0
  0
LINE
  8
0
 10
-0.7242415856411099
 20
-1.23987702627738
 30
0
 11
-0.6931855566671001
 21
-1.23987702627738
 31
0
  0
LINE
  8
0
 10
-0.7315404680261198
 20
-1.237925762958497
 30
0
 11
-0.7242415856411099
 21
-1.23987702627738
 31
0
  0
LINE
  8
0
 10
-0.7358339282531395
 20
-1.23549280216343
 30
0
 11
-0.7315404680261198
 21
-1.237925762958497
 31
0
  0
LINE
  8
0
 10
-0.7398411577991101
 20
-1.23119934193643
 30
0
 11
-0.7358339282531395
 21
-1.23549280216343
 31
0
  0
LINE
  8
0
 10
-0.7418447725720998
 20
-1.222039960118927
 30
0
 11
-0.7398411577991101
 21
-1.23119934193643
 31
0
  0
LINE
  8
0
 10
-0.7418447725720998
 20
-1.194275583984778
 30
0
 11
-0.7418447725720998
 21
-1.222039960118927
 31
0
  0
LINE
  8
0
 10
-0.73998427314113
 20
-1.185688663531098
 30
0
 11
-0.7418447725720998
 21
-1.194275583984778
 31
0
  0
LINE
  8
0
 10
-0.7359770435950687
 20
-1.180822741940588
 30
0
 11
-0.73998427314113
 21
-1.185688663531098
 31
0
  0
LINE
  8
0
 10
-0.7315404680261198
 20
-1.178676011827098
 30
0
 11
-0.7359770435950687
 21
-1.180822741940588
 31
0
  0
LINE
  8
0
 10
-0.7236691242761099
 20
-1.176734173693098
 30
0
 11
-0.7315404680261198
 21
-1.178676011827098
 31
0
  0
LINE
  8
0
 10
-0.6933286720060496
 20
-1.176734173693098
 30
0
 11
-0.7236691242761099
 21
-1.176734173693098
 31
0
  0
LINE
  8
0
 10
-0.6161505580816793
 20
-1.224183561420199
 30
0
 11
-0.6160348278670499
 21
-1.176734173693098
 31
0
  0
LINE
  8
0
 10
-0.6202542212980788
 20
-1.233214826121828
 30
0
 11
-0.6161505580816793
 21
-1.224183561420199
 31
0
  0
LINE
  8
0
 10
-0.6261761769911302
 20
-1.23758226844608
 30
0
 11
-0.6202542212980788
 21
-1.233214826121828
 31
0
  0
LINE
  8
0
 10
-0.6343928905181201
 20
-1.23987702627738
 30
0
 11
-0.6261761769911302
 21
-1.23758226844608
 31
0
  0
LINE
  8
0
 10
-0.6464588752420896
 20
-1.23987702627738
 30
0
 11
-0.6343928905181201
 21
-1.23987702627738
 31
0
  0
LINE
  8
0
 10
-0.6546755887690688
 20
-1.237508243999899
 30
0
 11
-0.6464588752420896
 21
-1.23987702627738
 31
0
  0
LINE
  8
0
 10
-0.660819617800089
 20
-1.23291872833731
 30
0
 11
-0.6546755887690688
 21
-1.237508243999899
 31
0
  0
LINE
  8
0
 10
-0.6646688890031002
 20
-1.224109819242829
 30
0
 11
-0.660819617800089
 21
-1.23291872833731
 31
0
  0
LINE
  8
0
 10
-0.66474291344813
 20
-1.192353331835278
 30
0
 11
-0.6646688890031002
 21
-1.224109819242829
 31
0
  0
LINE
  8
0
 10
-0.6605975444621199
 20
-1.183544422740808
 30
0
 11
-0.66474291344813
 21
-1.192353331835278
 31
0
  0
LINE
  8
0
 10
-0.6546755887690688
 20
-1.178954907078209
 30
0
 11
-0.6605975444621199
 21
-1.183544422740808
 31
0
  0
LINE
  8
0
 10
-0.6463108263520299
 20
-1.176734173693098
 30
0
 11
-0.6546755887690688
 21
-1.178954907078209
 31
0
  0
LINE
  8
0
 10
-0.6160348278670499
 20
-1.176734173693098
 30
0
 11
-0.6463108263520299
 21
-1.176734173693098
 31
0
  0
LINE
  8
0
 10
-0.6161828767600691
 20
-1.237434219553717
 30
0
 11
-0.6161505580816793
 21
-1.224183561420199
 31
0
  0
LINE
  8
0
 10
-0.6141101922670696
 20
-1.23987702627738
 30
0
 11
-0.6161828767600691
 21
-1.237434219553717
 31
0
  0
LINE
  8
0
 10
-0.6121855566671002
 20
-1.23987702627738
 30
0
 11
-0.6141101922670696
 21
-1.23987702627738
 31
0
  0
LINE
  8
0
 10
-0.5867213548976197
 20
-1.238322862392499
 30
0
 11
-0.5867213548976197
 21
-1.239222929725729
 31
0
  0
LINE
  8
0
 10
-0.5856212726005997
 20
-1.238322862392499
 30
0
 11
-0.5867213548976197
 21
-1.238322862392499
 31
0
  0
LINE
  8
0
 10
-0.5856212726005997
 20
-1.239222929725729
 30
0
 11
-0.5856212726005997
 21
-1.238322862392499
 31
0
  0
LINE
  8
0
 10
-0.5867213548976197
 20
-1.239222929725729
 30
0
 11
-0.5856212726005997
 21
-1.239222929725729
 31
0
  0
LINE
  8
0
 10
-0.5873455566671001
 20
-1.23771702627738
 30
0
 11
-0.5873455566671001
 21
-1.23987702627738
 31
0
  0
LINE
  8
0
 10
-0.5851855566671
 20
-1.23771702627738
 30
0
 11
-0.5873455566671001
 21
-1.23771702627738
 31
0
  0
LINE
  8
0
 10
-0.5851855566671
 20
-1.23987702627738
 30
0
 11
-0.5851855566671
 21
-1.23771702627738
 31
0
  0
LINE
  8
0
 10
-0.5873455566671001
 20
-1.23987702627738
 30
0
 11
-0.5851855566671
 21
-1.23987702627738
 31
0
  0
LINE
  8
0
 10
-0.469903486583049
 20
-1.199779418569979
 30
0
 11
-0.4722093282826991
 21
-1.20772557673759
 31
0
  0
LINE
  8
0
 10
-0.4659304074992197
 20
-1.192929282218567
 30
0
 11
-0.469903486583049
 21
-1.199779418569979
 31
0
  0
LINE
  8
0
 10
-0.4600392902372296
 20
-1.188682197680879
 30
0
 11
-0.4659304074992197
 21
-1.192929282218567
 31
0
  0
LINE
  8
0
 10
-0.4542851757019999
 20
-1.186216148594289
 30
0
 11
-0.4600392902372296
 21
-1.188682197680879
 31
0
  0
LINE
  8
0
 10
-0.4418179275428702
 20
-1.186490154048479
 30
0
 11
-0.4542851757019999
 21
-1.186216148594289
 31
0
  0
LINE
  8
0
 10
-0.4348307884643091
 20
-1.188956203134778
 30
0
 11
-0.4418179275428702
 21
-1.186490154048479
 31
0
  0
LINE
  8
0
 10
-0.4292136766565293
 20
-1.193203287672779
 30
0
 11
-0.4348307884643091
 21
-1.188956203134778
 31
0
  0
LINE
  8
0
 10
-0.4255146030266387
 20
-1.199094404934738
 30
0
 11
-0.4292136766565293
 21
-1.193203287672779
 31
0
  0
LINE
  8
0
 10
-0.4233225593941988
 20
-1.207862579464338
 30
0
 11
-0.4255146030266387
 21
-1.199094404934738
 31
0
  0
LINE
  8
0
 10
-0.4231855566671002
 20
-1.218000781264367
 30
0
 11
-0.4233225593941988
 21
-1.207862579464338
 31
0
  0
LINE
  8
0
 10
-0.4252405975726888
 20
-1.226905958521078
 30
0
 11
-0.4231855566671002
 21
-1.218000781264367
 31
0
  0
LINE
  8
0
 10
-0.4290766739294286
 20
-1.232797075783077
 30
0
 11
-0.4252405975726888
 21
-1.226905958521078
 31
0
  0
LINE
  8
0
 10
-0.4349677911914096
 20
-1.237181163047881
 30
0
 11
-0.4290766739294286
 21
-1.232797075783077
 31
0
  0
LINE
  8
0
 10
-0.44085890845374
 20
-1.23987702627738
 30
0
 11
-0.4349677911914096
 21
-1.237181163047881
 31
0
  0
LINE
  8
0
 10
-0.4541481729752486
 20
-1.23987702627738
 30
0
 11
-0.44085890845374
 21
-1.23987702627738
 31
0
  0
LINE
  8
0
 10
-0.4605873011452986
 20
-1.238140182137238
 30
0
 11
-0.4541481729752486
 21
-1.23987702627738
 31
0
  0
LINE
  8
0
 10
-0.4660674102263201
 20
-1.233208083964368
 30
0
 11
-0.4605873011452986
 21
-1.238140182137238
 31
0
  0
LINE
  8
0
 10
-0.4700404893101586
 20
-1.22676895579397
 30
0
 11
-0.4660674102263201
 21
-1.233208083964368
 31
0
  0
LINE
  8
0
 10
-0.4722093282826991
 20
-1.218137783991478
 30
0
 11
-0.4700404893101586
 21
-1.22676895579397
 31
0
  0
LINE
  8
0
 10
-0.4722093282826991
 20
-1.20772557673759
 30
0
 11
-0.4722093282826991
 21
-1.218137783991478
 31
0
  0
LINE
  8
0
 10
-0.4703144947640194
 20
-1.189778219497079
 30
0
 11
-0.4722093282826991
 21
-1.20772557673759
 31
0
  0
LINE
  8
0
 10
-0.4662044129534188
 20
-1.181010044967479
 30
0
 11
-0.4703144947640194
 21
-1.189778219497079
 31
0
  0
LINE
  8
0
 10
-0.4578472466047897
 20
-1.170460834986439
 30
0
 11
-0.4662044129534188
 21
-1.181010044967479
 31
0
  0
LINE
  8
0
 10
-0.4353787993727201
 20
-1.149809305029168
 30
0
 11
-0.4578472466047897
 21
-1.170460834986439
 31
0
  0
LINE
  8
0
 10
-0.3826855566671001
 20
-1.149809305029168
 30
0
 11
-0.3826855566671001
 21
-1.23987702627738
 31
0
  0
LINE
  8
0
 10
-0.407462182750709
 20
-1.177044543033458
 30
0
 11
-0.3826855566671001
 21
-1.149809305029168
 31
0
  0
LINE
  8
0
 10
-0.2517415856411099
 20
-1.23987702627738
 30
0
 11
-0.2206855566671002
 21
-1.23987702627738
 31
0
  0
LINE
  8
0
 10
-0.2590404680261199
 20
-1.237925762958497
 30
0
 11
-0.2517415856411099
 21
-1.23987702627738
 31
0
  0
LINE
  8
0
 10
-0.2633339282531397
 20
-1.23549280216343
 30
0
 11
-0.2590404680261199
 21
-1.237925762958497
 31
0
  0
LINE
  8
0
 10
-0.2673411577991101
 20
-1.23119934193643
 30
0
 11
-0.2633339282531397
 21
-1.23549280216343
 31
0
  0
LINE
  8
0
 10
-0.2693447725720998
 20
-1.222039960118927
 30
0
 11
-0.2673411577991101
 21
-1.23119934193643
 31
0
  0
LINE
  8
0
 10
-0.2693447725720998
 20
-1.194275583984778
 30
0
 11
-0.2693447725720998
 21
-1.222039960118927
 31
0
  0
LINE
  8
0
 10
-0.26748427314113
 20
-1.185688663531098
 30
0
 11
-0.2693447725720998
 21
-1.194275583984778
 31
0
  0
LINE
  8
0
 10
-0.2634770435950686
 20
-1.180822741940588
 30
0
 11
-0.26748427314113
 21
-1.185688663531098
 31
0
  0
LINE
  8
0
 10
-0.2590404680261199
 20
-1.178676011827098
 30
0
 11
-0.2634770435950686
 21
-1.180822741940588
 31
0
  0
LINE
  8
0
 10
-0.2511691242761099
 20
-1.176734173693098
 30
0
 11
-0.2590404680261199
 21
-1.178676011827098
 31
0
  0
LINE
  8
0
 10
-0.2208286720060496
 20
-1.176734173693098
 30
0
 11
-0.2511691242761099
 21
-1.176734173693098
 31
0
  0
LINE
  8
0
 10
-0.1687102077130585
 20
-1.23987702627738
 30
0
 11
-0.1687102077130585
 21
-1.176734173693098
 31
0
  0
LINE
  8
0
 10
-0.1396855566671002
 20
-1.187631163423728
 30
0
 11
-0.1396855566671002
 21
-1.23987702627738
 31
0
  0
LINE
  8
0
 10
-0.1429330700711198
 20
-1.18255692373043
 30
0
 11
-0.1396855566671002
 21
-1.187631163423728
 31
0
  0
LINE
  8
0
 10
-0.1461805834750685
 20
-1.17890347115121
 30
0
 11
-0.1429330700711198
 21
-1.18255692373043
 31
0
  0
LINE
  8
0
 10
-0.1522696711090903
 20
-1.176734173693098
 30
0
 11
-0.1461805834750685
 21
-1.17890347115121
 31
0
  0
LINE
  8
0
 10
-0.1963140716470898
 20
-1.176734173693098
 30
0
 11
-0.1522696711090903
 21
-1.176734173693098
 31
0
  0
LINE
  8
0
 10
-0.1971259499981188
 20
-1.23987702627738
 30
0
 11
-0.1963140716470898
 21
-1.176734173693098
 31
0
  0
LINE
  8
0
 10
0.00456814106287129
 20
-1.176734173693098
 30
0
 11
-0.0266446748852195
 21
-1.176734173693098
 31
0
  0
LINE
  8
0
 10
0.0115807927668302
 20
-1.179105357849789
 30
0
 11
0.00456814106287129
 21
-1.176734173693098
 31
0
  0
LINE
  8
0
 10
0.01601736833586983
 20
-1.181395203304139
 30
0
 11
0.0115807927668302
 21
-1.179105357849789
 31
0
  0
LINE
  8
0
 10
0.01930902117483129
 20
-1.18554554819029
 30
0
 11
0.01601736833586983
 21
-1.181395203304139
 31
0
  0
LINE
  8
0
 10
0.02231444333289983
 20
-1.194418699325899
 30
0
 11
0.01930902117483129
 21
-1.18554554819029
 31
0
  0
LINE
  8
0
 10
0.02231444333289983
 20
-1.221896844778119
 30
0
 11
0.02231444333289983
 21
-1.194418699325899
 31
0
  0
LINE
  8
0
 10
0.02031082856281137
 20
-1.230913111254798
 30
0
 11
0.02231444333289983
 21
-1.221896844778119
 31
0
  0
LINE
  8
0
 10
0.01544490697086985
 20
-1.23520657148178
 30
0
 11
0.02031082856281137
 21
-1.230913111254798
 31
0
  0
LINE
  8
0
 10
0.01215325413182109
 20
-1.237496416936108
 30
0
 11
0.01544490697086985
 21
-1.23520657148178
 31
0
  0
LINE
  8
0
 10
0.003995679697791276
 20
-1.23987702627738
 30
0
 11
0.01215325413182109
 21
-1.237496416936108
 31
0
  0
LINE
  8
0
 10
-0.02634477257217986
 20
-1.23987702627738
 30
0
 11
0.003995679697791276
 21
-1.23987702627738
 31
0
  0
LINE
  8
0
 10
-0.02677411859516906
 20
-1.149480482284078
 30
0
 11
-0.02634477257217986
 21
-1.23987702627738
 31
0
  0
LINE
  8
0
 10
0.1033144433328998
 20
-1.208157772051709
 30
0
 11
0.05479834276695145
 21
-1.208300887392459
 31
0
  0
LINE
  8
0
 10
0.1033144433328998
 20
-1.194561814666398
 30
0
 11
0.1033144433328998
 21
-1.208157772051709
 31
0
  0
LINE
  8
0
 10
0.1017401745829902
 20
-1.186118009553487
 30
0
 11
0.1033144433328998
 21
-1.194561814666398
 31
0
  0
LINE
  8
0
 10
0.09773294503701982
 20
-1.181824549326509
 30
0
 11
0.1017401745829902
 21
-1.186118009553487
 31
0
  0
LINE
  8
0
 10
0.0928670234479705
 20
-1.178676011826828
 30
0
 11
0.09773294503701982
 21
-1.181824549326509
 31
0
  0
LINE
  8
0
 10
0.08542502572094055
 20
-1.176734173693098
 30
0
 11
0.0928670234479705
 21
-1.178676011826828
 31
0
  0
LINE
  8
0
 10
0.07283087572099976
 20
-1.176734173693098
 30
0
 11
0.08542502572094055
 21
-1.176734173693098
 31
0
  0
LINE
  8
0
 10
0.06495953197100061
 20
-1.178676011826828
 30
0
 11
0.07283087572099976
 21
-1.176734173693098
 31
0
  0
LINE
  8
0
 10
0.06109541776696097
 20
-1.18153831864462
 30
0
 11
0.06495953197100061
 21
-1.178676011826828
 31
0
  0
LINE
  8
0
 10
0.05723130356300134
 20
-1.185259317508069
 30
0
 11
0.06109541776696097
 21
-1.18153831864462
 31
0
  0
LINE
  8
0
 10
0.05479834276695145
 20
-1.194704930007218
 30
0
 11
0.05723130356300134
 21
-1.185259317508069
 31
0
  0
LINE
  8
0
 10
0.05479834276695145
 20
-1.221324383414329
 30
0
 11
0.05479834276695145
 21
-1.194704930007218
 31
0
  0
LINE
  8
0
 10
0.05751753424693016
 20
-1.23048376523178
 30
0
 11
0.05479834276695145
 21
-1.221324383414329
 31
0
  0
LINE
  8
0
 10
0.06023672572396026
 20
-1.23477722545854
 30
0
 11
0.05751753424693016
 21
-1.23048376523178
 31
0
  0
LINE
  8
0
 10
0.06510264731293137
 20
-1.237496416935479
 30
0
 11
0.06023672572396026
 21
-1.23477722545854
 31
0
  0
LINE
  8
0
 10
0.07340333708592152
 20
-1.23987702627738
 30
0
 11
0.06510264731293137
 21
-1.237496416935479
 31
0
  0
LINE
  8
0
 10
0.1033144433328998
 20
-1.23987702627738
 30
0
 11
0.07340333708592152
 21
-1.23987702627738
 31
0
  0
LINE
  8
0
 10
0.1298947690788609
 20
-1.23987702627738
 30
0
 11
0.1298947690788609
 21
-1.176734173693098
 31
0
  0
LINE
  8
0
 10
0.1303144433328998
 20
-1.149670688521739
 30
0
 11
0.1303144433328998
 21
-1.15442699671728
 31
0
  0
LINE
  8
0
 10
0.2923144433329016
 20
-1.190645181613378
 30
0
 11
0.2923144433329016
 21
-1.23987702627738
 31
0
  0
LINE
  8
0
 10
0.2355170987397814
 20
-1.190645181613378
 30
0
 11
0.2355170987397814
 21
-1.149809305029168
 31
0
  0
LINE
  8
0
 10
0.2355170987397814
 20
-1.190645181613378
 30
0
 11
0.2355170987397814
 21
-1.149809305029168
 31
0
  0
LINE
  8
0
 10
0.2355170987397814
 20
-1.190645181613378
 30
0
 11
0.2923144433329016
 21
-1.190645181613378
 31
0
  0
LINE
  8
0
 10
0.2355170987397814
 20
-1.23987702627738
 30
0
 11
0.2355170987397814
 21
-1.190645181613378
 31
0
  0
LINE
  8
0
 10
0.2923144433329016
 20
-1.149809305029168
 30
0
 11
0.2923144433329016
 21
-1.190645181613378
 31
0
  0
LINE
  8
0
 10
0.2355170987397814
 20
-1.23987702627738
 30
0
 11
0.2355170987397814
 21
-1.190645181613378
 31
0
  0
LINE
  8
0
 10
0.3350554083739207
 20
-1.237832475386287
 30
0
 11
0.3426038125699906
 21
-1.23987702627738
 31
0
  0
LINE
  8
0
 10
0.3301954769059504
 20
-1.235454211051117
 30
0
 11
0.3350554083739207
 21
-1.237832475386287
 31
0
  0
LINE
  8
0
 10
0.3262661706140007
 20
-1.230904487975
 30
0
 11
0.3301954769059504
 21
-1.235454211051117
 31
0
  0
LINE
  8
0
 10
0.3241981146709713
 20
-1.221701639025479
 30
0
 11
0.3262661706140007
 21
-1.230904487975
 31
0
  0
LINE
  8
0
 10
0.3241981146709713
 20
-1.19440330056828
 30
0
 11
0.3241981146709713
 21
-1.221701639025479
 31
0
  0
LINE
  8
0
 10
0.3265763790049623
 20
-1.185820868401999
 30
0
 11
0.3241981146709713
 21
-1.19440330056828
 31
0
  0
LINE
  8
0
 10
0.3304022825029515
 20
-1.181477950920169
 30
0
 11
0.3265763790049623
 21
-1.185820868401999
 31
0
  0
LINE
  8
0
 10
0.3347451999829518
 20
-1.17909968658469
 30
0
 11
0.3304022825029515
 21
-1.181477950920169
 31
0
  0
LINE
  8
0
 10
0.3421902013819217
 20
-1.176734173693098
 30
0
 11
0.3347451999829518
 21
-1.17909968658469
 31
0
  0
LINE
  8
0
 10
0.3543917314489718
 20
-1.176734173693098
 30
0
 11
0.3421902013819217
 21
-1.176734173693098
 31
0
  0
LINE
  8
0
 10
0.3622503440360106
 20
-1.178892880990399
 30
0
 11
0.3543917314489718
 21
-1.176734173693098
 31
0
  0
LINE
  8
0
 10
0.3664898587190019
 20
-1.180960936934309
 30
0
 11
0.3622503440360106
 21
-1.178892880990399
 31
0
  0
LINE
  8
0
 10
0.3712463873899596
 20
-1.186027673996308
 30
0
 11
0.3664898587190019
 21
-1.180960936934309
 31
0
  0
LINE
  8
0
 10
0.3731076377389601
 20
-1.194610106162589
 30
0
 11
0.3712463873899596
 21
-1.186027673996308
 31
0
  0
LINE
  8
0
 10
0.3733144433329016
 20
-1.221908444619778
 30
0
 11
0.3731076377389601
 21
-1.194610106162589
 31
0
  0
LINE
  8
0
 10
0.3710395817959306
 20
-1.23059427958338
 30
0
 11
0.3733144433329016
 21
-1.221908444619778
 31
0
  0
LINE
  8
0
 10
0.3665932615159309
 20
-1.234937197065177
 30
0
 11
0.3710395817959306
 21
-1.23059427958338
 31
0
  0
LINE
  8
0
 10
0.3629741636149502
 20
-1.237522266994718
 30
0
 11
0.3665932615159309
 21
-1.234937197065177
 31
0
  0
LINE
  8
0
 10
0.3549087454339697
 20
-1.23987702627738
 30
0
 11
0.3629741636149502
 21
-1.237522266994718
 31
0
  0
LINE
  8
0
 10
0.3426038125699906
 20
-1.23987702627738
 30
0
 11
0.3549087454339697
 21
-1.23987702627738
 31
0
  0
LINE
  8
0
 10
0.4277143383289604
 20
-1.23987702627738
 30
0
 11
0.4290547053529099
 21
-1.23987702627738
 31
0
  0
LINE
  8
0
 10
0.4239946156158821
 20
-1.237617793548168
 30
0
 11
0.4277143383289604
 21
-1.23987702627738
 31
0
  0
LINE
  8
0
 10
0.4210719763399521
 20
-1.225661541970378
 30
0
 11
0.4239946156158821
 21
-1.237617793548168
 31
0
  0
LINE
  8
0
 10
0.4213376708209198
 20
-1.14993861531109
 30
0
 11
0.4210719763399521
 21
-1.225661541970378
 31
0
  0
LINE
  8
0
 10
0.4866170172588917
 20
-1.23987702627738
 30
0
 11
0.5353144433329017
 21
-1.23987702627738
 31
0
  0
LINE
  8
0
 10
0.5347908150949606
 20
-1.176734173693098
 30
0
 11
0.4866170172588917
 21
-1.23987702627738
 31
0
  0
LINE
  8
0
 10
0.4865122916119418
 20
-1.176734173693098
 30
0
 11
0.5347908150949606
 21
-1.176734173693098
 31
0
  0
LINE
  8
0
 10
0.6114748693369021
 20
-1.183478022832398
 30
0
 11
0.6157767128899414
 21
-1.19033408599368
 31
0
  0
LINE
  8
0
 10
0.6054254018419397
 20
-1.178907314057928
 30
0
 11
0.6114748693369021
 21
-1.183478022832398
 31
0
  0
LINE
  8
0
 10
0.59588068645993
 20
-1.176734173693098
 30
0
 11
0.6054254018419397
 21
-1.178907314057928
 31
0
  0
LINE
  8
0
 10
0.5882180276328999
 20
-1.176734173693098
 30
0
 11
0.59588068645993
 21
-1.176734173693098
 31
0
  0
LINE
  8
0
 10
0.5790766100839518
 20
-1.178907314057928
 30
0
 11
0.5882180276328999
 21
-1.176734173693098
 31
0
  0
LINE
  8
0
 10
0.5739681708649497
 20
-1.183209157610279
 30
0
 11
0.5790766100839518
 21
-1.178907314057928
 31
0
  0
LINE
  8
0
 10
0.5695318947019495
 20
-1.187511001162718
 30
0
 11
0.5739681708649497
 21
-1.183209157610279
 31
0
  0
LINE
  8
0
 10
0.5671121077039115
 20
-1.19208170993688
 30
0
 11
0.5695318947019495
 21
-1.187511001162718
 31
0
  0
LINE
  8
0
 10
0.5668432424808907
 20
-1.197055716544448
 30
0
 11
0.5671121077039115
 21
-1.19208170993688
 31
0
  0
LINE
  8
0
 10
0.5689941642589821
 20
-1.201760857929828
 30
0
 11
0.5668432424808907
 21
-1.197055716544448
 31
0
  0
LINE
  8
0
 10
0.5730271425889023
 20
-1.203642914483869
 30
0
 11
0.5689941642589821
 21
-1.201760857929828
 31
0
  0
LINE
  8
0
 10
0.609189514948941
 20
-1.213322062476498
 30
0
 11
0.5730271425889023
 21
-1.203642914483869
 31
0
  0
LINE
  8
0
 10
0.6133569258919799
 20
-1.214800821197598
 30
0
 11
0.609189514948941
 21
-1.213322062476498
 31
0
  0
LINE
  8
0
 10
0.6163144433329016
 20
-1.219909260416018
 30
0
 11
0.6133569258919799
 21
-1.214800821197598
 31
0
  0
LINE
  8
0
 10
0.6156422802768995
 20
-1.224211103968388
 30
0
 11
0.6163144433329016
 21
-1.219909260416018
 31
0
  0
LINE
  8
0
 10
0.6140290889449297
 20
-1.228647380131737
 30
0
 11
0.6156422802768995
 21
-1.224211103968388
 31
0
  0
LINE
  8
0
 10
0.6105338410609492
 20
-1.23281479107319
 30
0
 11
0.6140290889449297
 21
-1.228647380131737
 31
0
  0
LINE
  8
0
 10
0.6042155083429516
 20
-1.23778879768043
 30
0
 11
0.6105338410609492
 21
-1.23281479107319
 31
0
  0
LINE
  8
0
 10
0.5964184169029815
 20
-1.23987702627738
 30
0
 11
0.6042155083429516
 21
-1.23778879768043
 31
0
  0
LINE
  8
0
 10
0.5871425667439816
 20
-1.23987702627738
 30
0
 11
0.5964184169029815
 21
-1.23987702627738
 31
0
  0
LINE
  8
0
 10
0.5775978513619721
 20
-1.23792323029161
 30
0
 11
0.5871425667439816
 21
-1.23987702627738
 31
0
  0
LINE
  8
0
 10
0.5715483838669114
 20
-1.233486954128297
 30
0
 11
0.5775978513619721
 21
-1.23792323029161
 31
0
  0
LINE
  8
0
 10
0.5671121077039115
 20
-1.22649645835553
 30
0
 11
0.5715483838669114
 21
-1.233486954128297
 31
0
  0
LINE
  8
0
 10
0.6443122105098719
 20
-1.23987702627738
 30
0
 11
0.6443122105098719
 21
-1.149601004857388
 31
0
  0
LINE
  8
0
 10
0.6367839842928317
 20
-1.176734173693098
 30
0
 11
0.6568144433329016
 21
-1.176734173693098
 31
0
  0
LINE
  8
0
 10
0.7069708246548817
 20
-1.23987702627738
 30
0
 11
0.7378144433329017
 21
-1.23987702627738
 31
0
  0
LINE
  8
0
 10
0.6997385278639393
 20
-1.237369224023008
 30
0
 11
0.7069708246548817
 21
-1.23987702627738
 31
0
  0
LINE
  8
0
 10
0.6946333771849296
 20
-1.235667507130398
 30
0
 11
0.6997385278639393
 21
-1.237369224023008
 31
0
  0
LINE
  8
0
 10
0.6914426580139099
 20
-1.23141321489952
 30
0
 11
0.6946333771849296
 21
-1.235667507130398
 31
0
  0
LINE
  8
0
 10
0.6888900826729206
 20
-1.222266486602577
 30
0
 11
0.6914426580139099
 21
-1.23141321489952
 31
0
  0
LINE
  8
0
 10
0.6888900826729206
 20
-1.176734173693098
 30
0
 11
0.6888900826729206
 21
-1.222266486602577
 31
0
  0
LINE
  8
0
 10
0.7378144433329017
 20
-1.176734173693098
 30
0
 11
0.7378144433329017
 21
-1.23987702627738
 31
0
  0
LINE
  8
0
 10
0.7538417200398817
 20
-1.181252087962977
 30
0
 11
0.7778850973099307
 21
-1.181252087962977
 31
0
  0
LINE
  8
0
 10
0.7619992944709502
 20
-1.16522316978233
 30
0
 11
0.7621424098129519
 21
-1.23987702627738
 31
0
  0
LINE
  8
0
 10
0.7642891399249002
 20
-1.156779364669448
 30
0
 11
0.7619992944709502
 21
-1.16522316978233
 31
0
  0
LINE
  8
0
 10
0.7684394848129723
 20
-1.151627212397289
 30
0
 11
0.7642891399249002
 21
-1.156779364669448
 31
0
  0
LINE
  8
0
 10
0.7734485217439415
 20
-1.149909828306489
 30
0
 11
0.7684394848129723
 21
-1.151627212397289
 31
0
  0
LINE
  8
0
 10
0.7783144433329017
 20
-1.150052943647308
 30
0
 11
0.7734485217439415
 21
-1.149909828306489
 31
0
  0
LINE
  8
0
 10
0.8593144433329016
 20
-1.208157772051709
 30
0
 11
0.8107983427669515
 21
-1.208300887392459
 31
0
  0
LINE
  8
0
 10
0.8593144433329016
 20
-1.194561814666398
 30
0
 11
0.8593144433329016
 21
-1.208157772051709
 31
0
  0
LINE
  8
0
 10
0.8577401745829903
 20
-1.186118009553487
 30
0
 11
0.8593144433329016
 21
-1.194561814666398
 31
0
  0
LINE
  8
0
 10
0.8537329450370217
 20
-1.181824549326509
 30
0
 11
0.8577401745829903
 21
-1.186118009553487
 31
0
  0
LINE
  8
0
 10
0.8488670234479706
 20
-1.178676011826828
 30
0
 11
0.8537329450370217
 21
-1.181824549326509
 31
0
  0
LINE
  8
0
 10
0.8414250257209406
 20
-1.176734173693098
 30
0
 11
0.8488670234479706
 21
-1.178676011826828
 31
0
  0
LINE
  8
0
 10
0.8288308757210017
 20
-1.176734173693098
 30
0
 11
0.8414250257209406
 21
-1.176734173693098
 31
0
  0
LINE
  8
0
 10
0.8209595319710006
 20
-1.178676011826828
 30
0
 11
0.8288308757210017
 21
-1.176734173693098
 31
0
  0
LINE
  8
0
 10
0.8170954177669608
 20
-1.18153831864462
 30
0
 11
0.8209595319710006
 21
-1.178676011826828
 31
0
  0
LINE
  8
0
 10
0.8132313035630013
 20
-1.185259317508069
 30
0
 11
0.8170954177669608
 21
-1.18153831864462
 31
0
  0
LINE
  8
0
 10
0.8107983427669515
 20
-1.194704930007218
 30
0
 11
0.8132313035630013
 21
-1.185259317508069
 31
0
  0
LINE
  8
0
 10
0.8107983427669515
 20
-1.221324383414329
 30
0
 11
0.8107983427669515
 21
-1.194704930007218
 31
0
  0
LINE
  8
0
 10
0.8135175342469319
 20
-1.23048376523178
 30
0
 11
0.8107983427669515
 21
-1.221324383414329
 31
0
  0
LINE
  8
0
 10
0.8162367257239622
 20
-1.23477722545854
 30
0
 11
0.8135175342469319
 21
-1.23048376523178
 31
0
  0
LINE
  8
0
 10
0.8211026473129296
 20
-1.237496416935479
 30
0
 11
0.8162367257239622
 21
-1.23477722545854
 31
0
  0
LINE
  8
0
 10
0.8294033370859196
 20
-1.23987702627738
 30
0
 11
0.8211026473129296
 21
-1.237496416935479
 31
0
  0
LINE
  8
0
 10
0.8593144433329016
 20
-1.23987702627738
 30
0
 11
0.8294033370859196
 21
-1.23987702627738
 31
0
  0
LINE
  8
0
 10
0.9399085041559101
 20
-1.18844304177471
 30
0
 11
0.9403144433329017
 21
-1.23987702627738
 31
0
  0
LINE
  8
0
 10
0.9372698995159316
 20
-1.183774741256879
 30
0
 11
0.9399085041559101
 21
-1.18844304177471
 31
0
  0
LINE
  8
0
 10
0.9338194165249314
 20
-1.1799183190898
 30
0
 11
0.9372698995159316
 21
-1.183774741256879
 31
0
  0
LINE
  8
0
 10
0.9273243897168812
 20
-1.176734173693098
 30
0
 11
0.9338194165249314
 21
-1.1799183190898
 31
0
  0
LINE
  8
0
 10
0.8913987726889119
 20
-1.176734173693098
 30
0
 11
0.9273243897168812
 21
-1.176734173693098
 31
0
  0
LINE
  8
0
 10
0.8907898639249416
 20
-1.23987702627738
 30
0
 11
0.8913987726889119
 21
-1.176734173693098
 31
0
  0
LINE
  8
0
 10
-0.1922507394334189
 20
-0.961660143085559
 30
0
 11
-0.1414031672108595
 21
-0.961660143085559
 31
0
  0
LINE
  8
0
 10
-0.1414031672108595
 20
-0.961660143085559
 30
0
 11
-0.1250933564169591
 21
-0.9662776794410676
 31
0
  0
LINE
  8
0
 10
-0.1250933564169591
 20
-0.9662776794410676
 30
0
 11
-0.1148414753463785
 21
-0.9730346010555695
 31
0
  0
LINE
  8
0
 10
-0.1148414753463785
 20
-0.9730346010555695
 30
0
 11
-0.1106475239994088
 21
-0.9830534848290882
 31
0
  0
LINE
  8
0
 10
-0.1106475239994088
 20
-0.9830534848290882
 30
0
 11
-0.1108805212963998
 21
-0.9958683361670592
 31
0
  0
LINE
  8
0
 10
-0.1108805212963998
 20
-0.9958683361670592
 30
0
 11
-0.1143754807524001
 21
-1.00635321453456
 31
0
  0
LINE
  8
0
 10
-0.1143754807524001
 20
-1.00635321453456
 30
0
 11
-0.1213653996639696
 21
-1.01497411452607
 31
0
  0
LINE
  8
0
 10
-0.1213653996639696
 20
-1.01497411452607
 30
0
 11
-0.1369762185668988
 21
-1.021265041546558
 31
0
  0
LINE
  8
0
 10
-0.1369762185668988
 20
-1.021265041546558
 30
0
 11
-0.1721588104228886
 21
-1.021964033437569
 31
0
  0
LINE
  8
0
 10
-0.1369762185668988
 20
-1.021265041546558
 30
0
 11
-0.1253263537139501
 21
-1.025225995596578
 31
0
  0
LINE
  8
0
 10
-0.1253263537139501
 20
-1.025225995596578
 30
0
 11
-0.1178704402083986
 21
-1.033147903696539
 31
0
  0
LINE
  8
0
 10
-0.1178704402083986
 20
-1.033147903696539
 30
0
 11
-0.1139094861584199
 21
-1.041535806390519
 31
0
  0
LINE
  8
0
 10
-0.1139094861584199
 20
-1.041535806390519
 30
0
 11
-0.1108805212963998
 21
-1.055049649620069
 31
0
  0
LINE
  8
0
 10
-0.1108805212963998
 20
-1.055049649620069
 30
0
 11
-0.1108805212963998
 21
-1.074854419869538
 31
0
  0
LINE
  8
0
 10
-0.1108805212963998
 20
-1.074854419869538
 30
0
 11
-0.1153074699403587
 21
-1.08790226850508
 31
0
  0
LINE
  8
0
 10
-0.1153074699403587
 20
-1.08790226850508
 30
0
 11
-0.1215983969613899
 21
-1.100484122546059
 31
0
  0
LINE
  8
0
 10
-0.1215983969613899
 20
-1.100484122546059
 30
0
 11
-0.13138428343741
 21
-1.107707038755088
 31
0
  0
LINE
  8
0
 10
-0.13138428343741
 20
-1.107707038755088
 30
0
 11
-0.1414031672108595
 21
-1.111773011832578
 31
0
  0
LINE
  8
0
 10
-0.1414031672108595
 20
-1.111773011832578
 30
0
 11
-0.1922507394334189
 21
-1.111773011832578
 31
0
  0
LINE
  8
0
 10
-0.3275222591020192
 20
-0.961660143085559
 30
0
 11
-0.3275222591020192
 21
-1.111773011832578
 31
0
  0
LINE
  8
0
 10
-0.3275222591020192
 20
-1.111773011832578
 30
0
 11
-0.2456475239994088
 21
-1.111773011832578
 31
0
  0
LINE
  8
0
 10
-0.4617845917203995
 20
-0.9851504605025803
 30
0
 11
-0.454041672572399
 21
-0.9735005956500572
 31
0
  0
LINE
  8
0
 10
-0.454041672572399
 20
-0.9735005956500572
 30
0
 11
-0.4456537698784597
 21
-0.9660446821440783
 31
0
  0
LINE
  8
0
 10
-0.4456537698784597
 20
-0.9660446821440783
 30
0
 11
-0.4314409347578987
 21
-0.961660143085559
 31
0
  0
LINE
  8
0
 10
-0.4314409347578987
 20
-0.961660143085559
 30
0
 11
-0.4111701699140194
 21
-0.961660143085559
 31
0
  0
LINE
  8
0
 10
-0.4111701699140194
 20
-0.961660143085559
 30
0
 11
-0.3974233293874295
 21
-0.9655786875500598
 31
0
  0
LINE
  8
0
 10
-0.3974233293874295
 20
-0.9655786875500598
 30
0
 11
-0.3876374429109801
 21
-0.9732675983525587
 31
0
  0
LINE
  8
0
 10
-0.3876374429109801
 20
-0.9732675983525587
 30
0
 11
-0.3806475239994088
 21
-0.9849174632055875
 31
0
  0
LINE
  8
0
 10
-0.3806475239994088
 20
-0.9849174632055875
 30
0
 11
-0.3806475239994088
 21
-0.9988973010290902
 31
0
  0
LINE
  8
0
 10
-0.3806475239994088
 20
-0.9988973010290902
 30
0
 11
-0.3878704402079693
 21
-1.01497411452607
 31
0
  0
LINE
  8
0
 10
-0.3878704402079693
 20
-1.01497411452607
 30
0
 11
-0.4617845917203995
 21
-1.111773011832578
 31
0
  0
LINE
  8
0
 10
-0.4617845917203995
 20
-1.111773011832578
 30
0
 11
-0.381113518593389
 21
-1.111773011832578
 31
0
  0
LINE
  8
0
 10
-0.5359695951754602
 20
-0.961660143085559
 30
0
 11
-0.5734170072289001
 21
-0.9960793596810072
 31
0
  0
LINE
  8
0
 10
-0.5734170072289001
 20
-0.9960793596810072
 30
0
 11
-0.5873456178099586
 21
-1.013661376316068
 31
0
  0
LINE
  8
0
 10
-0.5873456178099586
 20
-1.013661376316068
 30
0
 11
-0.5941957541609499
 21
-1.02827500053207
 31
0
  0
LINE
  8
0
 10
-0.5941957541609499
 20
-1.02827500053207
 30
0
 11
-0.5973538100254301
 21
-1.058187262599589
 31
0
  0
LINE
  8
0
 10
-0.5973538100254301
 20
-1.058187262599589
 30
0
 11
-0.5973538100254301
 21
-1.07554094135607
 31
0
  0
LINE
  8
0
 10
-0.5973538100254301
 20
-1.07554094135607
 30
0
 11
-0.5937390784045201
 21
-1.089926227693559
 31
0
  0
LINE
  8
0
 10
-0.5937390784045201
 20
-1.089926227693559
 30
0
 11
-0.587117279931459
 21
-1.100658107977568
 31
0
  0
LINE
  8
0
 10
-0.587117279931459
 20
-1.100658107977568
 30
0
 11
-0.5779837647964196
 21
-1.108878271599009
 31
0
  0
LINE
  8
0
 10
-0.5779837647964196
 20
-1.108878271599009
 30
0
 11
-0.5672518845129999
 21
-1.111773011832578
 31
0
  0
LINE
  8
0
 10
-0.5672518845129999
 20
-1.111773011832578
 30
0
 11
-0.5451031103104997
 21
-1.111773011832578
 31
0
  0
LINE
  8
0
 10
-0.5451031103104997
 20
-1.111773011832578
 30
0
 11
-0.5352845815399396
 21
-1.10727990645008
 31
0
  0
LINE
  8
0
 10
-0.5352845815399396
 20
-1.10727990645008
 30
0
 11
-0.525466052769969
 21
-1.09997309434208
 31
0
  0
LINE
  8
0
 10
-0.525466052769969
 20
-1.09997309434208
 30
0
 11
-0.5190725921754094
 21
-1.090154565572069
 31
0
  0
LINE
  8
0
 10
-0.5190725921754094
 20
-1.090154565572069
 30
0
 11
-0.5156475239994088
 21
-1.07531260347756
 31
0
  0
LINE
  8
0
 10
-0.5156475239994088
 20
-1.07531260347756
 30
0
 11
-0.5158758618779195
 21
-1.058415600477518
 31
0
  0
LINE
  8
0
 10
-0.5158758618779195
 20
-1.058415600477518
 30
0
 11
-0.5195292679319899
 21
-1.043801976261519
 31
0
  0
LINE
  8
0
 10
-0.5195292679319899
 20
-1.043801976261519
 30
0
 11
-0.5256943906484685
 21
-1.033983447491577
 31
0
  0
LINE
  8
0
 10
-0.5256943906484685
 20
-1.033983447491577
 30
0
 11
-0.5350562436614291
 21
-1.026904973261579
 31
0
  0
LINE
  8
0
 10
-0.5350562436614291
 20
-1.026904973261579
 30
0
 11
-0.546701475459029
 21
-1.022794891451067
 31
0
  0
LINE
  8
0
 10
-0.546701475459029
 20
-1.022794891451067
 30
0
 11
-0.56748022239093
 21
-1.02233821569409
 31
0
  0
LINE
  8
0
 10
-0.56748022239093
 20
-1.02233821569409
 30
0
 11
-0.5770704132829798
 21
-1.026448297505071
 31
0
  0
LINE
  8
0
 10
-0.5770704132829798
 20
-1.026448297505071
 30
0
 11
-0.5868889420529486
 21
-1.03352677173456
 31
0
  0
LINE
  8
0
 10
-0.5868889420529486
 20
-1.03352677173456
 30
0
 11
-0.5935107405260096
 21
-1.04494366565358
 31
0
  0
LINE
  8
0
 10
-0.5935107405260096
 20
-1.04494366565358
 30
0
 11
-0.5973538100254301
 21
-1.058187262599589
 31
0
  0
LINE
  8
0
 10
-0.6919419008054501
 20
-1.00705220642604
 30
0
 11
-0.6506475239994088
 21
-0.961660143085559
 31
0
  0
LINE
  8
0
 10
-0.6506475239994088
 20
-0.961660143085559
 30
0
 11
-0.6506475239994088
 21
-1.111773011832578
 31
0
  0
LINE
  8
0
 10
-0.8139516558143587
 20
-1.111773011832578
 30
0
 11
-0.8139516558143587
 21
-1.037442846502508
 31
0
  0
LINE
  8
0
 10
-0.8139516558143587
 20
-0.961660143085559
 30
0
 11
-0.7492661212999301
 21
-0.961660143085559
 31
0
  0
LINE
  8
0
 10
-0.7492661212999301
 20
-0.961660143085559
 30
0
 11
-0.7359295795999587
 21
-0.9666321608090473
 31
0
  0
LINE
  8
0
 10
-0.7359295795999587
 20
-0.9666321608090473
 30
0
 11
-0.72735608850698
 21
-0.9733004316590705
 31
0
  0
LINE
  8
0
 10
-0.72735608850698
 20
-0.9733004316590705
 30
0
 11
-0.7184650607069998
 21
-0.9917175606735873
 31
0
  0
LINE
  8
0
 10
-0.7184650607069998
 20
-0.9917175606735873
 30
0
 11
-0.7181475239994088
 21
-1.008547006152057
 31
0
  0
LINE
  8
0
 10
-0.7181475239994088
 20
-1.008547006152057
 30
0
 11
-0.7229105746069892
 21
-1.018390644073537
 31
0
  0
LINE
  8
0
 10
-0.7229105746069892
 20
-1.018390644073537
 30
0
 11
-0.7260859416783697
 21
-1.027599208581069
 31
0
  0
LINE
  8
0
 10
-0.7260859416783697
 20
-1.027599208581069
 30
0
 11
-0.7365646530139693
 21
-1.034267479431059
 31
0
  0
LINE
  8
0
 10
-0.7365646530139693
 20
-1.034267479431059
 30
0
 11
-0.7511713415429896
 21
-1.036490236381087
 31
0
  0
LINE
  8
0
 10
-0.7511713415429896
 20
-1.036490236381087
 30
0
 11
-0.7600699569314493
 21
-1.036625261367539
 31
0
  0
LINE
  8
0
 10
-0.8139516558143587
 20
-1.037442846502508
 30
0
 11
-0.8139516558143587
 21
-0.961660143085559
 31
0
  0
LINE
  8
0
 10
-0.7600699569314493
 20
-1.036625261367539
 30
0
 11
-0.7191001341208703
 21
-1.111773011832578
 31
0
  0
LINE
  8
0
 10
-0.7600699569314493
 20
-1.036625261367539
 30
0
 11
-0.8139516558143587
 21
-1.037442846502508
 31
0
  0
LINE
  8
0
 10
-0.9483433480869791
 20
-1.093083180284069
 30
0
 11
-0.9412853964319693
 21
-1.101095714141578
 31
0
  0
LINE
  8
0
 10
-0.9412853964319693
 20
-1.101095714141578
 30
0
 11
-0.9272634621814888
 21
-1.108197732788089
 31
0
  0
LINE
  8
0
 10
-0.9272634621814888
 20
-1.108197732788089
 30
0
 11
-0.9114204975084195
 21
-1.111773011832578
 31
0
  0
LINE
  8
0
 10
-0.9114204975084195
 20
-1.111773011832578
 30
0
 11
-0.8897502354848804
 21
-1.111773011832578
 31
0
  0
LINE
  8
0
 10
-0.8897502354848804
 20
-1.111773011832578
 30
0
 11
-0.8733609616854392
 21
-1.107833526703569
 31
0
  0
LINE
  8
0
 10
-0.8733609616854392
 20
-1.107833526703569
 30
0
 11
-0.8631631913214096
 21
-1.10054940501507
 31
0
  0
LINE
  8
0
 10
-0.8631631913214096
 20
-1.10054940501507
 30
0
 11
-0.8569716878860091
 21
-1.088712707271068
 31
0
  0
LINE
  8
0
 10
-0.8569716878860091
 20
-1.088712707271068
 30
0
 11
-0.8531475239994089
 21
-1.078879142991598
 31
0
  0
LINE
  8
0
 10
-0.8531475239994089
 20
-1.078879142991598
 30
0
 11
-0.8540580392104093
 21
-1.070138196965079
 31
0
  0
LINE
  8
0
 10
-0.8540580392104093
 20
-1.070138196965079
 30
0
 11
-0.8573358939704996
 21
-1.059212014432069
 31
0
  0
LINE
  8
0
 10
-0.8573358939704996
 20
-1.059212014432069
 30
0
 11
-0.86425580957487
 21
-1.048285831899579
 31
0
  0
LINE
  8
0
 10
-0.86425580957487
 20
-1.048285831899579
 30
0
 11
-0.8740893738544202
 21
-1.04100171021057
 31
0
  0
LINE
  8
0
 10
-0.8740893738544202
 20
-1.04100171021057
 30
0
 11
-0.9323623473634288
 21
-1.013504150836037
 31
0
  0
LINE
  8
0
 10
-0.9323623473634288
 20
-1.013504150836037
 30
0
 11
-0.9412853964319693
 21
-1.007130544358537
 31
0
  0
LINE
  8
0
 10
-0.9412853964319693
 20
-1.007130544358537
 30
0
 11
-0.9449274572759697
 21
-0.9967506709525878
 31
0
  0
LINE
  8
0
 10
-0.9449274572759697
 20
-0.9967506709525878
 30
0
 11
-0.9443811481494485
 21
-0.9883739310105594
 31
0
  0
LINE
  8
0
 10
-0.9443811481494485
 20
-0.9883739310105594
 30
0
 11
-0.9416496025164597
 21
-0.9770835423930693
 31
0
  0
LINE
  8
0
 10
-0.9416496025164597
 20
-0.9770835423930693
 30
0
 11
-0.9307234199834602
 21
-0.9694352146200071
 31
0
  0
LINE
  8
0
 10
-0.9307234199834602
 20
-0.9694352146200071
 30
0
 11
-0.9075963336219592
 21
-0.961660143085559
 31
0
  0
LINE
  8
0
 10
-0.9075963336219592
 20
-0.961660143085559
 30
0
 11
-0.89393860545596
 21
-0.961660143085559
 31
0
  0
LINE
  8
0
 10
-0.89393860545596
 20
-0.961660143085559
 30
0
 11
-0.876092507318439
 21
-0.9661573598600698
 31
0
  0
LINE
  8
0
 10
-0.876092507318439
 20
-0.9661573598600698
 30
0
 11
-0.8669873552080191
 21
-0.9692531115780983
 31
0
  0
LINE
  8
0
 10
-0.8669873552080191
 20
-0.9692531115780983
 30
0
 11
-0.8575179970129594
 21
-0.9767193363085099
 31
0
  0
LINE
  8
0
 10
-1.08223296239541
 20
-0.961660143085559
 30
0
 11
-0.9881475239994089
 21
-0.961660143085559
 31
0
  0
LINE
  8
0
 10
-0.9881475239994089
 20
-0.961660143085559
 30
0
 11
-1.08223296239541
 21
-1.111773011832578
 31
0
  0
LINE
  8
0
 10
-1.08223296239541
 20
-1.111773011832578
 30
0
 11
-0.9881475239994089
 21
-1.111773011832578
 31
0
  0
LINE
  8
0
 10
0.5611717646722009
 20
-0.4636426224555798
 30
0
 11
0.5159206574421024
 21
-0.4262559552246675
 31
0
  0
LINE
  8
0
 10
0.4608269235204007
 20
-0.380737265788739
 30
0
 11
0.4086107996193006
 21
-0.4439372672009084
 31
0
  0
LINE
  8
0
 10
0.5611717646722009
 20
-0.4636426224555798
 30
0
 11
0.5089556407710897
 21
-0.5268426238677275
 31
0
  0
LINE
  8
0
 10
0.5159206574421024
 20
-0.4262559552246675
 30
0
 11
0.47081587709224
 21
-0.4805555320940002
 31
0
  0
LINE
  8
0
 10
0.5159206574421024
 20
-0.4262559552246675
 30
0
 11
0.4608269235204007
 21
-0.380737265788739
 31
0
  0
LINE
  8
0
 10
0.553752908417222
 20
-0.225122267714698
 30
0
 11
0.6134592415282004
 21
-0.2493952329714775
 31
0
  0
LINE
  8
0
 10
0.6134592415282004
 20
-0.2493952329714775
 30
0
 11
0.5920681481706506
 21
-0.3020127740136086
 31
0
  0
LINE
  8
0
 10
0.6134592415282004
 20
-0.2493952329714775
 30
0
 11
0.6743323381259017
 21
-0.2741425333297484
 31
0
  0
LINE
  8
0
 10
0.6743323381259017
 20
-0.2741425333297484
 30
0
 11
0.6534597124338815
 21
-0.3254847541621275
 31
0
  0
LINE
  8
0
 10
0.6534597124338815
 20
-0.3254847541621275
 30
0
 11
0.6463860890220221
 21
-0.3350922691187079
 31
0
  0
LINE
  8
0
 10
0.6463860890220221
 20
-0.3350922691187079
 30
0
 11
0.6358700862286514
 21
-0.3412197851949386
 31
0
  0
LINE
  8
0
 10
0.6358700862286514
 20
-0.3412197851949386
 30
0
 11
0.618898807596981
 21
-0.3405619051561189
 31
0
  0
LINE
  8
0
 10
0.618898807596981
 20
-0.3405619051561189
 30
0
 11
0.6073649091494319
 21
-0.3367645818249403
 31
0
  0
LINE
  8
0
 10
0.6073649091494319
 20
-0.3367645818249403
 30
0
 11
0.5998893771430721
 21
-0.3295644115778705
 31
0
  0
LINE
  8
0
 10
0.5998893771430721
 20
-0.3295644115778705
 30
0
 11
0.5927642631303006
 21
-0.323695578098057
 31
0
  0
LINE
  8
0
 10
0.5927642631303006
 20
-0.323695578098057
 30
0
 11
0.5927189466683322
 21
-0.313571691206278
 31
0
  0
LINE
  8
0
 10
0.5927189466683322
 20
-0.313571691206278
 30
0
 11
0.5920681481706506
 21
-0.3020127740136086
 31
0
  0
LINE
  8
0
 10
0.5957683196150412
 20
-0.04881012543144971
 30
0
 11
0.6600048070577123
 21
-0.05407289437383952
 31
0
  0
LINE
  8
0
 10
0.6600048070577123
 20
-0.05407289437383952
 30
0
 11
0.6553668742557003
 21
-0.1106827352116488
 31
0
  0
LINE
  8
0
 10
0.6600048070577123
 20
-0.05407289437383952
 30
0
 11
0.7254965849220116
 21
-0.05943850678902891
 31
0
  0
LINE
  8
0
 10
0.7254965849220116
 20
-0.05943850678902891
 30
0
 11
0.7209710642418413
 21
-0.1146762638565488
 31
0
  0
LINE
  8
0
 10
0.7209710642418413
 20
-0.1146762638565488
 30
0
 11
0.717102044487632
 21
-0.1259621478696172
 31
0
  0
LINE
  8
0
 10
0.717102044487632
 20
-0.1259621478696172
 30
0
 11
0.7089059072740911
 21
-0.1349597088052469
 31
0
  0
LINE
  8
0
 10
0.7089059072740911
 20
-0.1349597088052469
 30
0
 11
0.6925176046247816
 21
-0.1394184800277471
 31
0
  0
LINE
  8
0
 10
0.6925176046247816
 20
-0.1394184800277471
 30
0
 11
0.68037582017145
 21
-0.1392525036177503
 31
0
  0
LINE
  8
0
 10
0.68037582017145
 20
-0.1392525036177503
 30
0
 11
0.6710859877194215
 21
-0.1346237842075498
 31
0
  0
LINE
  8
0
 10
0.6710859877194215
 20
-0.1346237842075498
 30
0
 11
0.6625294758322398
 21
-0.1311601790867171
 31
0
  0
LINE
  8
0
 10
0.6625294758322398
 20
-0.1311601790867171
 30
0
 11
0.6594520437035408
 21
-0.1215152555062486
 31
0
  0
LINE
  8
0
 10
0.6594520437035408
 20
-0.1215152555062486
 30
0
 11
0.6553668742557003
 21
-0.1106827352116488
 31
0
  0
LINE
  8
0
 10
0.7099605999114301
 20
0.1607301384191414
 30
0
 11
0.6527116339829498
 21
0.1477693709917912
 31
0
  0
LINE
  8
0
 10
0.5830103716444009
 20
0.1319894903264831
 30
0
 11
0.6011120396443712
 21
0.05203266829503263
 31
0
  0
LINE
  8
0
 10
0.7099605999114301
 20
0.1607301384191414
 30
0
 11
0.7280622679114223
 21
0.08077331638768011
 31
0
  0
LINE
  8
0
 10
0.6527116339829498
 20
0.1477693709917912
 30
0
 11
0.6681159916802116
 21
0.07888112074160017
 31
0
  0
LINE
  8
0
 10
0.6527116339829498
 20
0.1477693709917912
 30
0
 11
0.5830103716444009
 21
0.1319894903264831
 31
0
  0
LINE
  8
0
 10
0.5166519964041818
 20
0.3006543424152114
 30
0
 11
0.5723580626493803
 21
0.3330712706997219
 31
0
  0
LINE
  8
0
 10
0.6291527203503919
 20
0.3661216810003498
 30
0
 11
0.6573634249019906
 21
0.3176436955853715
 31
0
  0
LINE
  8
0
 10
0.6573634249019906
 20
0.3176436955853715
 30
0
 11
0.6594535341663305
 21
0.3054803455729198
 31
0
  0
LINE
  8
0
 10
0.6594535341663305
 20
0.3054803455729198
 30
0
 11
0.6581951366989105
 21
0.2961468493049906
 31
0
  0
LINE
  8
0
 10
0.6581951366989105
 20
0.2961468493049906
 30
0
 11
0.6482701487066899
 21
0.2814514570744723
 31
0
  0
LINE
  8
0
 10
0.6482701487066899
 20
0.2814514570744723
 30
0
 11
0.6357959582363819
 21
0.2738738115047527
 31
0
  0
LINE
  8
0
 10
0.6357959582363819
 20
0.2738738115047527
 30
0
 11
0.6263414680844016
 21
0.2731504215910318
 31
0
  0
LINE
  8
0
 10
0.6263414680844016
 20
0.2731504215910318
 30
0
 11
0.6180553496777921
 21
0.2715141253945403
 31
0
  0
LINE
  8
0
 10
0.6180553496777921
 20
0.2715141253945403
 30
0
 11
0.60848789118455
 21
0.2764591289239615
 31
0
  0
LINE
  8
0
 10
0.60848789118455
 20
0.2764591289239615
 30
0
 11
0.6004517860881515
 21
0.2864365883159116
 31
0
  0
LINE
  8
0
 10
0.6004517860881515
 20
0.2864365883159116
 30
0
 11
0.5964697219234094
 21
0.2930466874706399
 31
0
  0
LINE
  8
0
 10
0.5723580626493803
 20
0.3330712706997219
 30
0
 11
0.6291527203503919
 21
0.3661216810003498
 31
0
  0
LINE
  8
0
 10
0.5964697219234094
 20
0.2930466874706399
 30
0
 11
0.5580187142469314
 21
0.2295687323207203
 31
0
  0
LINE
  8
0
 10
0.5964697219234094
 20
0.2930466874706399
 30
0
 11
0.5723580626493803
 21
0.3330712706997219
 31
0
  0
LINE
  8
0
 10
0.4596379150871417
 20
0.5660000724057318
 30
0
 11
0.4905022083616696
 21
0.5378529672830409
 31
0
  0
LINE
  8
0
 10
0.4027940069139095
 20
0.4416778316780328
 30
0
 11
0.4905022083616696
 21
0.5378529672830409
 31
0
  0
LINE
  8
0
 10
0.4905022083616696
 20
0.5378529672830409
 30
0
 11
0.5207769231528019
 21
0.5102435361450626
 31
0
  0
LINE
  8
0
 10
-0.3957547646651092
 20
0.6109471311559902
 30
0
 11
-0.3606960170551702
 21
0.6336572245540302
 31
0
  0
LINE
  8
0
 10
-0.2899298960643991
 20
0.5244118977442923
 30
0
 11
-0.3606960170551702
 21
0.6336572245540302
 31
0
  0
LINE
  8
0
 10
-0.3606960170551702
 20
0.6336572245540302
 30
0
 11
-0.3263069715849398
 21
0.6559335033072603
 31
0
  0
LINE
  8
0
 10
-0.5268994660910102
 20
0.4980900444740109
 30
0
 11
-0.4982798980519402
 21
0.5285167506937724
 31
0
  0
LINE
  8
0
 10
-0.4034683120335085
 20
0.4393363242173727
 30
0
 11
-0.4982798980519402
 21
0.5285167506937724
 31
0
  0
LINE
  8
0
 10
-0.4982798980519402
 20
0.5285167506937724
 30
0
 11
-0.4702070291181899
 21
0.5583622373421022
 31
0
  0
LINE
  8
0
 10
-0.5247328388799488
 20
0.2864701321059001
 30
0
 11
-0.5161436931429288
 21
0.3031066005347602
 31
0
  0
LINE
  8
0
 10
-0.5161436931429288
 20
0.3031066005347602
 30
0
 11
-0.5150341616419302
 21
0.31430868648658
 31
0
  0
LINE
  8
0
 10
-0.5150341616419302
 20
0.31430868648658
 30
0
 11
-0.5161458795757898
 21
0.3235589053836229
 31
0
  0
LINE
  8
0
 10
-0.5161458795757898
 20
0.3235589053836229
 30
0
 11
-0.52070665673242
 21
0.3327306212301701
 31
0
  0
LINE
  8
0
 10
-0.52070665673242
 20
0.3327306212301701
 30
0
 11
-0.5254017128420692
 21
0.3410420642671306
 31
0
  0
LINE
  8
0
 10
-0.5254017128420692
 20
0.3410420642671306
 30
0
 11
-0.5351400628254087
 21
0.3497882161061716
 31
0
  0
LINE
  8
0
 10
-0.5351400628254087
 20
0.3497882161061716
 30
0
 11
-0.5826029286373087
 21
0.3742925436500809
 31
0
  0
LINE
  8
0
 10
-0.5826029286373087
 20
0.3742925436500809
 30
0
 11
-0.5962409826170497
 21
0.3766856608400412
 31
0
  0
LINE
  8
0
 10
-0.5962409826170497
 20
0.3766856608400412
 30
0
 11
-0.6141258015499589
 21
0.3744542569860896
 31
0
  0
LINE
  8
0
 10
-0.6141258015499589
 20
0.3744542569860896
 30
0
 11
-0.6239290722300193
 21
0.3686702100921611
 31
0
  0
LINE
  8
0
 10
-0.6239290722300193
 20
0.3686702100921611
 30
0
 11
-0.6318018362190997
 21
0.3628190720128114
 31
0
  0
LINE
  8
0
 10
-0.6318018362190997
 20
0.3628190720128114
 30
0
 11
-0.6397594271226299
 21
0.3474058733211423
 31
0
  0
LINE
  8
0
 10
-0.6397594271226299
 20
0.3474058733211423
 30
0
 11
-0.6408388057984703
 21
0.3371178188526102
 31
0
  0
LINE
  8
0
 10
-0.6408388057984703
 20
0.3371178188526102
 30
0
 11
-0.6377937602422098
 21
0.3250102556369202
 31
0
  0
LINE
  8
0
 10
-0.6377937602422098
 20
0.3250102556369202
 30
0
 11
-0.6341956629037286
 21
0.3175750213806023
 31
0
  0
LINE
  8
0
 10
-0.6341956629037286
 20
0.3175750213806023
 30
0
 11
-0.6303608796036096
 21
0.3093978572966516
 31
0
  0
LINE
  8
0
 10
-0.6303608796036096
 20
0.3093978572966516
 30
0
 11
-0.6205065794324
 21
0.3008762914290928
 31
0
  0
LINE
  8
0
 10
-0.6205065794324
 20
0.3008762914290928
 30
0
 11
-0.57353302151563
 21
0.2766245858186812
 31
0
  0
LINE
  8
0
 10
-0.57353302151563
 20
0.2766245858186812
 30
0
 11
-0.5601451966757796
 21
0.2731466098476812
 31
0
  0
LINE
  8
0
 10
-0.5601451966757796
 20
0.2731466098476812
 30
0
 11
-0.5448651001284397
 21
0.2739339939745623
 31
0
  0
LINE
  8
0
 10
-0.5448651001284397
 20
0.2739339939745623
 30
0
 11
-0.532094110135329
 21
0.2806647847146305
 31
0
  0
LINE
  8
0
 10
-0.532094110135329
 20
0.2806647847146305
 30
0
 11
-0.5247328388799488
 21
0.2864701321059001
 31
0
  0
LINE
  8
0
 10
-0.7071084335730302
 20
0.1877017210902522
 30
0
 11
-0.7144521519830596
 21
0.1376685848546804
 31
0
  0
LINE
  8
0
 10
-0.5857232591060693
 20
0.1183969287219625
 30
0
 11
-0.5784337378798391
 21
0.1680608167199825
 31
0
  0
LINE
  8
0
 10
-0.5784337378798391
 20
0.1680608167199825
 30
0
 11
-0.6490013277788603
 21
0.1784185225942128
 31
0
  0
LINE
  8
0
 10
-0.6490013277788603
 20
0.1784185225942128
 30
0
 11
-0.6532016095263097
 21
0.1498017841566325
 31
0
  0
LINE
  8
0
 10
-0.7144521519830596
 20
0.1376685848546804
 30
0
 11
-0.7128805547838201
 21
0.1261218160888129
 31
0
  0
LINE
  8
0
 10
-0.7128805547838201
 20
0.1261218160888129
 30
0
 11
-0.7018097027567292
 21
0.1090315397169215
 31
0
  0
LINE
  8
0
 10
-0.7018097027567292
 20
0.1090315397169215
 30
0
 11
-0.6808621032302798
 21
0.1001242513246725
 31
0
  0
LINE
  8
0
 10
-0.6808621032302798
 20
0.1001242513246725
 30
0
 11
-0.6282442293291388
 21
0.09240115262770997
 31
0
  0
LINE
  8
0
 10
-0.6282442293291388
 20
0.09240115262770997
 30
0
 11
-0.6053817154804201
 21
0.09525532297312021
 31
0
  0
LINE
  8
0
 10
-0.6053817154804201
 20
0.09525532297312021
 30
0
 11
-0.5977105667297893
 21
0.09997602275949975
 31
0
  0
LINE
  8
0
 10
-0.5977105667297893
 20
0.09997602275949975
 30
0
 11
-0.5857232591060693
 21
0.1183969287219625
 31
0
  0
LINE
  8
0
 10
-0.6032185230798496
 20
-0.01327434346670998
 30
0
 11
-0.7188196585480801
 21
-0.114789064408269
 31
0
  0
LINE
  8
0
 10
-0.73175286674191
 20
-0.03380012747642832
 30
0
 11
-0.6032185230798496
 21
-0.01327434346670998
 31
0
  0
LINE
  8
0
 10
-0.5902853148859886
 20
-0.09426328039855798
 30
0
 11
-0.7188196585480801
 21
-0.114789064408269
 31
0
  0
LINE
  8
0
 10
-0.5715109551292898
 20
-0.1934528959419004
 30
0
 11
-0.6513733969025289
 21
-0.3249475782807386
 31
0
  0
LINE
  8
0
 10
-0.68798502627378
 20
-0.2515577671737883
 30
0
 11
-0.5715109551292898
 21
-0.1934528959419004
 31
0
  0
LINE
  8
0
 10
-0.5348993257580387
 20
-0.2668427070488578
 30
0
 11
-0.6513733969025289
 21
-0.3249475782807386
 31
0
  0
LINE
  8
0
 10
-0.5240415927622598
 20
-0.505231273653968
 30
0
 11
-0.4817845445642197
 21
-0.4644910297939387
 31
0
  0
LINE
  8
0
 10
-0.4303361113159499
 20
-0.4148893229513378
 30
0
 11
-0.4872360111657799
 21
-0.3558709768983281
 31
0
  0
LINE
  8
0
 10
-0.5240415927622598
 20
-0.505231273653968
 30
0
 11
-0.5809414926120499
 21
-0.4462129276009874
 31
0
  0
LINE
  8
0
 10
-0.4817845445642197
 20
-0.4644910297939387
 30
0
 11
-0.5306439092320688
 21
-0.4135435299254386
 31
0
  0
LINE
  8
0
 10
-0.4817845445642197
 20
-0.4644910297939387
 30
0
 11
-0.4303361113159499
 21
-0.4148893229513378
 31
0
  0
LINE
  8
0
 10
-0.3481537719510397
 20
-0.6392708204658775
 30
0
 11
-0.3043433619554689
 21
-0.5588272952216576
 31
0
  0
LINE
  8
0
 10
-0.3043433619554689
 20
-0.5588272952216576
 30
0
 11
-0.3378566168139296
 21
-0.5707481412753695
 31
0
  0
LINE
  8
0
 10
-0.3043433619554689
 20
-0.5588272952216576
 30
0
 11
-0.28589933018802
 21
-0.524960848063558
 31
0
  0
LINE
  8
0
 10
-0.3378566168139296
 20
-0.5707481412753695
 30
0
 11
-0.3579406053110197
 21
-0.4857263939523002
 31
0
  0
LINE
  8
0
 10
-0.3378566168139296
 20
-0.5707481412753695
 30
0
 11
-0.4201950470740285
 21
-0.6000363663546086
 31
0
  0
ARC
  8
0
 10
0
 20
0
 30
0
 40
0.8575000000000108
 50
55.50169106410249
 51
124.4983089358985
  0
ARC
  8
0
 10
0
 20
0
 30
0
 40
0.5300000000000303
 50
128.3143076962691
 51
138.1794240620347
  0
ARC
  8
0
 10
0
 20
0
 30
0
 40
0.5300000000000221
 50
88.45101165445672
 51
113.3152178582457
  0
ARC
  8
0
 10
0
 20
0
 30
0
 40
0.530000000000027
 50
113.3152178582457
 51
128.3143076962691
  0
ARC
  8
0
 10
0
 20
0
 30
0
 40
0.5300000000000141
 50
138.1794240620347
 51
163.043630265825
  0
ARC
  8
0
 10
0
 20
0
 30
0
 40
0.5300000000000049
 50
163.043630265825
 51
187.9078364696156
  0
ARC
  8
0
 10
0
 20
0
 30
0
 40
0.5299999999999995
 50
187.9078364696156
 51
212.7720426734057
  0
ARC
  8
0
 10
0
 20
0
 30
0
 40
0.5299999999999832
 50
212.7720426734057
 51
237.6362488771966
  0
ARC
  8
0
 10
0
 20
0
 30
0
 40
0.529999999999982
 50
237.6362488771966
 51
262.5004550809888
  0
ARC
  8
0
 10
0
 20
0
 30
0
 40
0.5299999999999855
 50
262.5004550809888
 51
287.364661284781
  0
ARC
  8
0
 10
0
 20
0
 30
0
 40
0.5299999999999897
 50
287.364661284781
 51
312.2288674885708
  0
ARC
  8
0
 10
0
 20
0
 30
0
 40
0.5299999999999948
 50
312.2288674885708
 51
337.0930736923629
  0
ARC
  8
0
 10
0
 20
0
 30
0
 40
0.5299999999999947
 50
337.0930736923629
 51
1.957279896154225
  0
ARC
  8
0
 10
0
 20
0
 30
0
 40
0.5299999999999983
 50
1.957279896154225
 51
26.82148609994339
  0
ARC
  8
0
 10
0
 20
0
 30
0
 40
0.5300000000000145
 50
26.82148609994339
 51
51.68569230373316
  0
CIRCLE
  8
0
 10
0.01432677639238136
 20
0.5298063263856201
 30
0
 40
0.06999999999999999
  0
CIRCLE
  8
0
  6
DASHED
 10
0
 20
0
 30
0
 40
0.8875000000000001
  0
INSERT
  8
0
  2
*D0
 10
0
 20
0
 30
0
 43
1
  0
INSERT
  8
0
  2
*D1
 10
0
 20
0
 30
0
 43
1
  0
ENDSEC
  0
EOF
