  0
SECTION
  2
HEADER
  9
$ACADVER
  1
AC1009
  9
$INSBASE
 10
0
 20
0
  9
$EXTMIN
 10
-1.06567657838538
 20
-1.349646455793878
  9
$EXTMAX
 10
1.12332486457259
 20
0.9533514236331213
  9
$LIMMIN
 10
-1.06567657838538
 20
-1.349646455793878
  9
$LIMMAX
 10
1.12332486457259
 20
0.9533514236331213
  9
$VIEWCTR
 10
10
 20
10
  9
$VIEWSIZE
 40
10
  9
$SNAPMODE
 70
0
  9
$SNAPUNIT
 10
1
 20
1
  9
$SNAPBASE
 10
0
 20
0
  9
$SNAPANG
 50
0
  9
$SNAPSTYLE
 70
0
  9
$SNAPISOPAIR
 70
0
  9
$GRIDMODE
 70
0
  9
$GRIDUNIT
 10
0
 20
0
  9
$ORTHOMODE
 70
0
  9
$REGENMODE
 70
1
  9
$FILLMODE
 70
1
  9
$QTEXTMODE
 70
0
  9
$DRAGMODE
 70
2
  9
$LTSCALE
 40
1
  9
$OSMODE
 70
0
  9
$ATTMODE
 70
1
  9
$TEXTSIZE
 40
3.5
  9
$TRACEWID
 40
0.5
  9
$TEXTSTYLE
  7
STANDARD
  9
$CLAYER
  8
0
  9
$CELTYPE
  6
BYLAYER
  9
$CECOLOR
 62
256
  9
$DIMSCALE
 40
1
  9
$DIMASZ
 40
0.18
  9
$DIMEXO
 40
0.0625
  9
$DIMDLI
 40
0.38
  9
$DIMRND
 40
0
  9
$DIMDLE
 40
0
  9
$DIMEXE
 40
0.18
  9
$DIMTP
 40
0
  9
$DIMTM
 40
0
  9
$DIMTXT
 40
0.18
  9
$DIMCEN
 40
0.09
  9
$DIMTSZ
 40
0
  9
$DIMTOL
 70
0
  9
$DIMLIM
 70
0
  9
$DIMTIH
 70
1
  9
$DIMTOH
 70
1
  9
$DIMSE1
 70
0
  9
$DIMSE2
 70
0
  9
$DIMTAD
 70
0
  9
$DIMZIN
 70
0
  9
$DIMBLK
  1

  9
$DIMASO
 70
1
  9
$DIMSHO
 70
1
  9
$DIMPOST
  1

  9
$DIMAPOST
  1

  9
$DIMALT
 70
0
  9
$DIMALTD
 70
2
  9
$DIMALTF
 40
25.4
  9
$DIMLFAC
 40
1
  9
$DIMTOFL
 70
0
  9
$DIMTVP
 40
0
  9
$DIMTIX
 70
0
  9
$DIMSOXD
 70
0
  9
$DIMSAH
 70
0
  9
$DIMBLK1
  1

  9
$DIMBLK2
  1

  9
$DIMSTYLE
  2
*UNNAMED
  9
$DIMCLRD
 70
0
  9
$DIMCLRE
 70
0
  9
$DIMCLRT
 70
0
  9
$DIMTFAC
 40
1
  9
$DIMGAP
 40
0.09
  9
$LUNITS
 70
2
  9
$LUPREC
 70
4
  9
$AXISMODE
 70
0
  9
$AXISUNIT
 10
0
 20
0
  9
$SKETCHINC
 40
0.1
  9
$FILLETRAD
 40
2
  9
$AUNITS
 70
0
  9
$AUPREC
 70
0
  9
$MENU
  1
ACAD
  9
$ELEVATION
 40
0
  9
$THICKNESS
 40
0
  9
$VIEWDIR
 10
0
 20
0
 30
1
  9
$LIMCHECK
 70
0
  9
$BLIPMODE
 70
1
  9
$CHAMFERA
 40
0
  9
$CHAMFERB
 40
0
  9
$FASTZOOM
 70
1
  9
$SKPOLY
 70
0
  9
$ANGBASE
 50
0
  9
$ANGDIR
 70
0
  9
$PDMODE
 70
0
  9
$PDSIZE
 40
0
  9
$PLINEWID
 40
0
  9
$COORDS
 70
2
  0
ENDSEC
  0
SECTION
  2
TABLES
  0
TABLE
  2
LTYPE
 70
9
  0
LTYPE
  2
CONTINUOUS
 70
64
  3
Solid line
 72
65
 73
0
 40
0
  0
LTYPE
  2
BORDER
 70
64
  3
__ __ . __ __ .
 72
65
 73
6
 40
0.1060591128683487
 49
0.03030260367667104
 49
-0.01515130183833552
 49
0.03030260367667104
 49
-0.01515130183833552
 49
0
 49
-0.01515130183833552
  0
LTYPE
  2
CENTER
 70
64
  3
____ _ ____ _
 72
65
 73
4
 40
0.1212104147066842
 49
0.0757565091916776
 49
-0.01515130183833552
 49
0.01515130183833552
 49
-0.01515130183833552
  0
LTYPE
  2
DASHDOT
 70
64
  3
__ . __ . __ .
 72
65
 73
4
 40
0.06060520735334209
 49
0.03030260367667104
 49
-0.01515130183833552
 49
0
 49
-0.01515130183833552
  0
LTYPE
  2
DASHED
 70
64
  3
__ __ __ __ __
 72
65
 73
2
 40
0.04545390551500657
 49
0.03030260367667104
 49
-0.01515130183833552
  0
LTYPE
  2
DIVIDE
 70
64
  3
__ . . __ . . 
 72
65
 73
6
 40
0.0757565091916776
 49
0.03030260367667104
 49
-0.01515130183833552
 49
0
 49
-0.01515130183833552
 49
0
 49
-0.01515130183833552
  0
LTYPE
  2
DOT
 70
64
  3
..............
 72
65
 73
4
 40
0.03030260367667104
 49
0
 49
-0.01515130183833552
 49
0
 49
-0.01515130183833552
  0
LTYPE
  2
HIDDEN
 70
64
  3
_ _ _ _ _ _ _
 72
65
 73
2
 40
0.02272695275750328
 49
0.01515130183833552
 49
-0.007575650919167761
  0
LTYPE
  2
PHANTOM
 70
64
  3
_____ _ _ _____ _ _ 
 72
65
 73
6
 40
0.1515130183833552
 49
0.0757565091916776
 49
-0.01515130183833552
 49
0.01515130183833552
 49
-0.01515130183833552
 49
0.01515130183833552
 49
-0.01515130183833552
  0
ENDTAB
  0
TABLE
  2
LAYER
 70
2
  0
LAYER
  2
0
 70
0
 62
7
  6
CONTINUOUS
  0
ENDTAB
  0
TABLE
  2
STYLE
 70
4
  0
STYLE
  2
STANDARD
 70
0
 40
0
 41
1
 50
0
 71
0
 42
3.5
  3
txt
  4

  0
STYLE
  2
SIMPLEX
 70
0
 40
0
 41
1
 50
0
 71
0
 42
3.5
  3
simplex
  4

  0
STYLE
  2
COMPLEX
 70
0
 40
0
 41
1
 50
0
 71
0
 42
3.5
  3
complex
  4

  0
STYLE
  2
ITALIC
 70
0
 40
0
 41
1
 50
0
 71
0
 42
3.5
  3
italic
  4

  0
ENDTAB
  0
TABLE
  2
VIEW
 70
0
  0
ENDTAB
  0
ENDSEC
  0
SECTION
  2
BLOCKS
  0
BLOCK
  8
0
  2
*D0
 70
1
 10
0
 20
0
 30
0
  0
LINE
  8
0
 10
1.09332486457259
 20
-0.8875000000000001
 30
0
 11
1.09332486457259
 21
0.8875000000000001
 31
0
  0
LINE
  8
0
 10
0.05000000000000004
 20
-0.8875000000000001
 30
0
 11
1.12332486457259
 21
-0.8875000000000001
 31
0
  0
LINE
  8
0
 10
0.05000000000000004
 20
0.8875000000000001
 30
0
 11
1.12332486457259
 21
0.8875000000000001
 31
0
  0
LINE
  8
0
 10
1.111002534102254
 20
0.8698223304703364
 30
0
 11
1.075647195042926
 21
0.9051776695296637
 31
0
  0
LINE
  8
0
 10
1.075647195042926
 20
-0.8698223304703364
 30
0
 11
1.111002534102254
 21
-0.9051776695296637
 31
0
  0
TEXT
  8
0
 62
7
 10
1.07832486457259
 20
-0.3285601097440541
 30
0
 40
0.05
  1
Durchmesser 1,78
 50
90
 41
0.9
  0
ENDBLK
  8
0
  0
BLOCK
  8
0
  2
*D1
 70
1
 10
0
 20
0
 30
0
  0
LINE
  8
0
 10
-1.00067657838538
 20
-0.8100000000000002
 30
0
 11
-1.00067657838538
 21
0.8100000000000002
 31
0
  0
LINE
  8
0
 10
-0.05000000000000004
 20
-0.8100000000000002
 30
0
 11
-1.03067657838538
 21
-0.8100000000000002
 31
0
  0
LINE
  8
0
 10
-0.05000000000000004
 20
0.8100000000000002
 30
0
 11
-1.03067657838538
 21
0.8100000000000002
 31
0
  0
LINE
  8
0
 10
-0.9829989088557163
 20
0.7923223304703365
 30
0
 11
-1.018354247915044
 21
0.8276776695296638
 31
0
  0
LINE
  8
0
 10
-1.018354247915044
 20
-0.7923223304703365
 30
0
 11
-0.9829989088557163
 21
-0.8276776695296638
 31
0
  0
TEXT
  8
0
 62
7
 10
-1.01567657838538
 20
-0.3251441204406969
 30
0
 40
0.05
  1
Durchmesser 1,62
 50
90
 41
0.9
  0
ENDBLK
  8
0
  0
ENDSEC
  0
SECTION
  2
ENTITIES
  0
POINT
  8
0
  6
DASHED
 10
0
 20
0
 30
0
  0
LINE
  8
0
  6
DASHED
 10
0.1328111645727404
 20
0.05335993563932061
 30
0
 11
0.008845624190540548
 21
0.09327854839111023
 31
0
  0
LINE
  8
0
  6
DASHED
 10
0.1647303045660901
 20
0.1124600199477718
 30
0
 11
-0.03119505014515016
 21
0.08835157895429074
 31
0
  0
LINE
  8
0
  6
DASHED
 10
0.2442229140291511
 20
0.2596450607146618
 30
0
 11
-0.06545259059166893
 21
0.06704544012916083
 31
0
  0
LINE
  8
0
 10
-0.6887106046349891
 20
0.4003113471772122
 30
0
 11
-0.8088504402068303
 21
0.07692343841265027
 31
0
  0
LINE
  8
0
 10
-0.4565533155931098
 20
0.6527867505062206
 30
0
 11
-0.7015316308352285
 21
0.4098897668125828
 31
0
  0
LINE
  8
0
 10
-0.7931904057771098
 20
0.0736237176368013
 30
0
 11
-0.7662194860678593
 21
-0.2703034390641296
 31
0
  0
LINE
  8
0
 10
-0.7506235987295695
 20
-0.2667127380643396
 30
0
 11
-0.5815419618563392
 21
-0.567419771069228
 31
0
  0
LINE
  8
0
 10
-0.5689014849405795
 20
-0.5576043149473481
 30
0
 11
-0.2890545443479386
 21
-0.759344270006539
 31
0
  0
LINE
  8
0
 10
-0.2817128486807087
 20
-0.7451237095299693
 30
0
 11
0.0570196160390915
 21
-0.8104967695103806
 31
0
  0
LINE
  8
0
 10
0.05770148090605107
 20
-0.7945074012976475
 30
0
 11
0.3925231226741689
 21
-0.7113942986601178
 31
0
  0
LINE
  8
0
 10
0.0570196160390915
 20
-0.8104967695103806
 30
0
 11
0.0922763361337311
 21
0.01625455157820033
 31
0
  0
LINE
  8
0
 10
0.3864187483587102
 20
-0.6966003319927294
 30
0
 11
0.6552582329634915
 21
-0.4804090945574971
 31
0
  0
LINE
  8
0
 10
0.6434992866311204
 20
-0.4695531276871079
 30
0
 11
0.7965174656528707
 21
-0.1603626418774475
 31
0
  0
LINE
  8
0
 10
0.7812838944656596
 20
-0.1554572219746697
 30
0
 11
0.7901132989428207
 21
0.1894128423146503
 31
0
  0
LINE
  8
0
 10
0.7742291977932201
 20
0.187458317766952
 30
0
 11
0.6372329773916591
 21
0.5040737867858115
 31
0
  0
LINE
  8
0
 10
0.6236430404932708
 20
0.4956216597969104
 30
0
 11
0.4536033674273622
 21
0.6473247554355912
 31
0
  0
LINE
  8
0
  6
DASHED
 10
0.3574420280996801
 20
0.7119035525712206
 30
0
 11
0.02731198433202007
 21
0.8120408274907603
 31
0
  0
LINE
  8
0
  6
DASHED
 10
0.3662184130791593
 20
0.7252863737323314
 30
0
 11
-0.08757611961598923
 21
0.03330999745237204
 31
0
  0
LINE
  8
0
 10
0.08091323773006118
 20
-0.04273199705296794
 30
0
 11
0.4856724903060222
 21
0.7067025414981799
 31
0
  0
LINE
  8
0
 10
-0.3275598763069502
 20
0.2636786077105899
 30
0
 11
-0.4640526583083392
 21
0.441267911565872
 31
0
  0
LINE
  8
0
 10
-0.4640526583083392
 20
0.441267911565872
 30
0
 11
-0.3285867415228895
 21
0.4158494358483404
 31
0
  0
LINE
  8
0
 10
-0.3285867415228895
 20
0.4158494358483404
 30
0
 11
-0.3275598763069502
 21
0.2636786077105899
 31
0
  0
LINE
  8
0
 10
-0.4856724903059985
 20
0.7067025414981799
 30
0
 11
-0.07092287097806911
 21
-0.06122972341515924
 31
0
  0
LINE
  8
0
 10
-0.7015316308352285
 20
0.4098897668125828
 30
0
 11
-0.03860360217605921
 21
-0.0853750230237274
 31
0
  0
LINE
  8
0
 10
-0.8088504402068303
 20
0.07692343841265027
 30
0
 11
0.0008722443184415172
 21
-0.09369296583584946
 31
0
  0
LINE
  8
0
 10
-0.7662194860678593
 20
-0.2703034390641296
 30
0
 11
0.0401863886950614
 21
-0.08464151948610743
 31
0
  0
LINE
  8
0
 10
-0.5815419618563392
 20
-0.567419771069228
 30
0
 11
0.07205052849525055
 21
-0.05989869782244932
 31
0
  0
LINE
  8
0
 10
-0.2890545443479386
 20
-0.759344270006539
 30
0
 11
0.08091323773006118
 21
-0.04273199705296794
 31
0
  0
LINE
  8
0
 10
0.3925231226741689
 20
-0.7113942986601178
 30
0
 11
0.07688841700089143
 21
0.05354721270404116
 31
0
  0
LINE
  8
0
 10
0.6552582329634915
 20
-0.4804090945574971
 30
0
 11
0.04724644127998
 21
0.08091295596906277
 31
0
  0
LINE
  8
0
 10
0.7965174656528707
 20
-0.1603626418774475
 30
0
 11
0.1328111645727404
 21
0.05335993563932061
 31
0
  0
LINE
  8
0
 10
0.7901132989428207
 20
0.1894128423146503
 30
0
 11
0.1647303045660901
 21
0.1124600199477718
 31
0
  0
LINE
  8
0
 10
0.6372329773916591
 20
0.5040737867858115
 30
0
 11
0.2442229140291511
 21
0.2596450607146618
 31
0
  0
LINE
  8
0
  6
DASHED
 10
0.4536033674273622
 20
0.6473247554355912
 30
0
 11
0.3662184130791593
 21
0.7252863737323314
 31
0
  0
LINE
  8
0
  6
DASHED
 10
0.02731198433202007
 20
0.8120408274907603
 30
0
 11
-0.09495819743253014
 21
-0.01672696362478746
 31
0
  0
LINE
  8
0
 10
0.9577301958935914
 20
0
 30
0
 11
-0.9492045182436087
 21
0
 31
0
  0
LINE
  8
0
 10
0
 20
0.9533514236331213
 30
0
 11
0
 21
0.8875000000000001
 31
0
  0
LINE
  8
0
 10
0
 20
0.8100000000000002
 30
0
 11
0
 21
-0.8100000000000002
 31
0
  0
LINE
  8
0
 10
0
 20
-0.8100000000000002
 30
0
 11
0
 21
-0.8875000000000001
 31
0
  0
LINE
  8
0
 10
0
 20
-0.8875000000000001
 30
0
 11
0
 21
-0.9704290035265802
 31
0
  0
LINE
  8
0
 10
0
 20
0.8875000000000001
 30
0
 11
0
 21
0.8100000000000002
 31
0
  0
LINE
  8
0
 10
-0.9859183629976087
 20
-1.349646455793878
 30
0
 11
-0.9859183629976087
 21
-1.259578734545648
 31
0
  0
LINE
  8
0
 10
-0.9291670793488902
 20
-1.259578734545648
 30
0
 11
-0.9291670793488902
 21
-1.349646455793878
 31
0
  0
LINE
  8
0
 10
-0.9291670793488902
 20
-1.349646455793878
 30
0
 11
-0.9859183629976087
 21
-1.259578734545648
 31
0
  0
LINE
  8
0
 10
-0.89729192041046
 20
-1.349646455793878
 30
0
 11
-0.8481670793488902
 21
-1.349646455793878
 31
0
  0
LINE
  8
0
 10
-0.89729192041046
 20
-1.25957873454567
 30
0
 11
-0.89729192041046
 21
-1.349646455793878
 31
0
  0
LINE
  8
0
 10
-0.8199544367449291
 20
-1.300526115835768
 30
0
 11
-0.8199544367449291
 21
-1.25957873454567
 31
0
  0
LINE
  8
0
 10
-0.8199544367449291
 20
-1.300526115835768
 30
0
 11
-0.7875761132482295
 21
-1.300526115835768
 31
0
  0
LINE
  8
0
 10
-0.7842776835271397
 20
-1.349646455793878
 30
0
 11
-0.8199544367449291
 21
-1.349646455793878
 31
0
  0
LINE
  8
0
 10
-0.7747946980789293
 20
-1.345261068928477
 30
0
 11
-0.7842776835271397
 21
-1.349646455793878
 31
0
  0
LINE
  8
0
 10
-0.7708778127850602
 20
-1.341138031776878
 30
0
 11
-0.7747946980789293
 21
-1.345261068928477
 31
0
  0
LINE
  8
0
 10
-0.7671670793488902
 20
-1.332273501901469
 30
0
 11
-0.7708778127850602
 21
-1.341138031776878
 31
0
  0
LINE
  8
0
 10
-0.7673732312062493
 20
-1.32011054230469
 30
0
 11
-0.7671670793488902
 21
-1.332273501901469
 31
0
  0
LINE
  8
0
 10
-0.7710839646424192
 20
-1.309596797568887
 30
0
 11
-0.7673732312062493
 21
-1.32011054230469
 31
0
  0
LINE
  8
0
 10
-0.77603160922423
 20
-1.304443001129388
 30
0
 11
-0.7710839646424192
 21
-1.309596797568887
 31
0
  0
LINE
  8
0
 10
-0.7845904656559486
 20
-1.299331856798839
 30
0
 11
-0.77603160922423
 21
-1.304443001129388
 31
0
  0
LINE
  8
0
 10
-0.7845904656559486
 20
-1.299331856798839
 30
0
 11
-0.7875761132482295
 21
-1.300526115835768
 31
0
  0
LINE
  8
0
 10
-0.7875761132482295
 20
-1.300526115835768
 30
0
 11
-0.7845904656559486
 21
-1.299331856798839
 31
0
  0
LINE
  8
0
 10
-0.7813915575211194
 20
-1.29805229354489
 30
0
 11
-0.7845904656559486
 21
-1.299331856798839
 31
0
  0
LINE
  8
0
 10
-0.7756193055091589
 20
-1.294135408250968
 30
0
 11
-0.7813915575211194
 21
-1.29805229354489
 31
0
  0
LINE
  8
0
 10
-0.7708778127850602
 20
-1.285064726517878
 30
0
 11
-0.7756193055091589
 21
-1.294135408250968
 31
0
  0
LINE
  8
0
 10
-0.7714962683578398
 20
-1.27661250035754
 30
0
 11
-0.7708778127850602
 21
-1.285064726517878
 31
0
  0
LINE
  8
0
 10
-0.7735577869333702
 20
-1.26857257791239
 30
0
 11
-0.7714962683578398
 21
-1.27661250035754
 31
0
  0
LINE
  8
0
 10
-0.77953619080303
 20
-1.262181870327579
 30
0
 11
-0.7735577869333702
 21
-1.26857257791239
 31
0
  0
LINE
  8
0
 10
-0.7896376318237599
 20
-1.25957873454567
 30
0
 11
-0.77953619080303
 21
-1.262181870327579
 31
0
  0
LINE
  8
0
 10
-0.8199544367449291
 20
-1.25957873454567
 30
0
 11
-0.7896376318237599
 21
-1.25957873454567
 31
0
  0
LINE
  8
0
 10
-0.8199544367449291
 20
-1.349646455793878
 30
0
 11
-0.8199544367449291
 21
-1.300526115835768
 31
0
  0
LINE
  8
0
 10
-0.6362231083228999
 20
-1.349646455793878
 30
0
 11
-0.6051670793488902
 21
-1.349646455793878
 31
0
  0
LINE
  8
0
 10
-0.6435219907079189
 20
-1.347695192474999
 30
0
 11
-0.6362231083228999
 21
-1.349646455793878
 31
0
  0
LINE
  8
0
 10
-0.6478154509349389
 20
-1.345262231679928
 30
0
 11
-0.6435219907079189
 21
-1.347695192474999
 31
0
  0
LINE
  8
0
 10
-0.6518226804809092
 20
-1.340968771452928
 30
0
 11
-0.6478154509349389
 21
-1.345262231679928
 31
0
  0
LINE
  8
0
 10
-0.6538262952538989
 20
-1.331809389635429
 30
0
 11
-0.6518226804809092
 21
-1.340968771452928
 31
0
  0
LINE
  8
0
 10
-0.6538262952538989
 20
-1.30404501350128
 30
0
 11
-0.6538262952538989
 21
-1.331809389635429
 31
0
  0
LINE
  8
0
 10
-0.65196579582292
 20
-1.2954580930476
 30
0
 11
-0.6538262952538989
 21
-1.30404501350128
 31
0
  0
LINE
  8
0
 10
-0.6479585662768697
 20
-1.29059217145708
 30
0
 11
-0.65196579582292
 21
-1.2954580930476
 31
0
  0
LINE
  8
0
 10
-0.6435219907079189
 20
-1.288445441343589
 30
0
 11
-0.6479585662768697
 21
-1.29059217145708
 31
0
  0
LINE
  8
0
 10
-0.6356506469579088
 20
-1.2865036032096
 30
0
 11
-0.6435219907079189
 21
-1.288445441343589
 31
0
  0
LINE
  8
0
 10
-0.6053101946878486
 20
-1.2865036032096
 30
0
 11
-0.6356506469579088
 21
-1.2865036032096
 31
0
  0
LINE
  8
0
 10
-0.5281320807634802
 20
-1.333952990936697
 30
0
 11
-0.528016350548849
 21
-1.2865036032096
 31
0
  0
LINE
  8
0
 10
-0.5322357439798797
 20
-1.34298425563833
 30
0
 11
-0.5281320807634802
 21
-1.333952990936697
 31
0
  0
LINE
  8
0
 10
-0.5381576996729293
 20
-1.347351697962578
 30
0
 11
-0.5322357439798797
 21
-1.34298425563833
 31
0
  0
LINE
  8
0
 10
-0.5463744131999101
 20
-1.349646455793878
 30
0
 11
-0.5381576996729293
 21
-1.347351697962578
 31
0
  0
LINE
  8
0
 10
-0.5584403979238887
 20
-1.349646455793878
 30
0
 11
-0.5463744131999101
 21
-1.349646455793878
 31
0
  0
LINE
  8
0
 10
-0.5666571114508697
 20
-1.347277673516397
 30
0
 11
-0.5584403979238887
 21
-1.349646455793878
 31
0
  0
LINE
  8
0
 10
-0.5728011404818899
 20
-1.342688157853809
 30
0
 11
-0.5666571114508697
 21
-1.347277673516397
 31
0
  0
LINE
  8
0
 10
-0.5766504116848993
 20
-1.333879248759327
 30
0
 11
-0.5728011404818899
 21
-1.342688157853809
 31
0
  0
LINE
  8
0
 10
-0.5767244361299291
 20
-1.30212276135178
 30
0
 11
-0.5766504116848993
 21
-1.333879248759327
 31
0
  0
LINE
  8
0
 10
-0.572579067143919
 20
-1.293313852257299
 30
0
 11
-0.5767244361299291
 21
-1.30212276135178
 31
0
  0
LINE
  8
0
 10
-0.5666571114508697
 20
-1.288724336594707
 30
0
 11
-0.572579067143919
 21
-1.293313852257299
 31
0
  0
LINE
  8
0
 10
-0.558292349033829
 20
-1.2865036032096
 30
0
 11
-0.5666571114508697
 21
-1.288724336594707
 31
0
  0
LINE
  8
0
 10
-0.528016350548849
 20
-1.2865036032096
 30
0
 11
-0.558292349033829
 21
-1.2865036032096
 31
0
  0
LINE
  8
0
 10
-0.5281643994418701
 20
-1.347203649070208
 30
0
 11
-0.5281320807634802
 21
-1.333952990936697
 31
0
  0
LINE
  8
0
 10
-0.5260917149488687
 20
-1.349646455793878
 30
0
 11
-0.5281643994418701
 21
-1.347203649070208
 31
0
  0
LINE
  8
0
 10
-0.5241670793488902
 20
-1.349646455793878
 30
0
 11
-0.5260917149488687
 21
-1.349646455793878
 31
0
  0
LINE
  8
0
 10
-0.4987028775794187
 20
-1.348092291908997
 30
0
 11
-0.4987028775794187
 21
-1.348992359242227
 31
0
  0
LINE
  8
0
 10
-0.4976027952823988
 20
-1.348092291908997
 30
0
 11
-0.4987028775794187
 21
-1.348092291908997
 31
0
  0
LINE
  8
0
 10
-0.4976027952823988
 20
-1.348992359242227
 30
0
 11
-0.4976027952823988
 21
-1.348092291908997
 31
0
  0
LINE
  8
0
 10
-0.4987028775794187
 20
-1.348992359242227
 30
0
 11
-0.4976027952823988
 21
-1.348992359242227
 31
0
  0
LINE
  8
0
 10
-0.49932707934889
 20
-1.347486455793878
 30
0
 11
-0.49932707934889
 21
-1.349646455793878
 31
0
  0
LINE
  8
0
 10
-0.4971670793488903
 20
-1.347486455793878
 30
0
 11
-0.49932707934889
 21
-1.347486455793878
 31
0
  0
LINE
  8
0
 10
-0.4971670793488903
 20
-1.349646455793878
 30
0
 11
-0.4971670793488903
 21
-1.347486455793878
 31
0
  0
LINE
  8
0
 10
-0.49932707934889
 20
-1.349646455793878
 30
0
 11
-0.4971670793488903
 21
-1.349646455793878
 31
0
  0
LINE
  8
0
 10
-0.3409506083959895
 20
-1.343081391757478
 30
0
 11
-0.3456589177816786
 21
-1.34761281657777
 31
0
  0
LINE
  8
0
 10
-0.3370949223647094
 20
-1.33621827062159
 30
0
 11
-0.3409506083959895
 21
-1.343081391757478
 31
0
  0
LINE
  8
0
 10
-0.3351670793488902
 20
-1.327350192749367
 30
0
 11
-0.3370949223647094
 21
-1.33621827062159
 31
0
  0
LINE
  8
0
 10
-0.3352441930697097
 20
-1.313701064198369
 30
0
 11
-0.3351670793488902
 21
-1.327350192749367
 31
0
  0
LINE
  8
0
 10
-0.3374804909677587
 20
-1.304910100046687
 30
0
 11
-0.3352441930697097
 21
-1.313701064198369
 31
0
  0
LINE
  8
0
 10
-0.3433411337356793
 20
-1.298355433793389
 30
0
 11
-0.3374804909677587
 21
-1.304910100046687
 31
0
  0
LINE
  8
0
 10
-0.3532740964406294
 20
-1.296271773362678
 30
0
 11
-0.3433411337356793
 21
-1.298355433793389
 31
0
  0
LINE
  8
0
 10
-0.3530284455160891
 20
-1.349646455793878
 30
0
 11
-0.3456589177816786
 21
-1.34761281657777
 31
0
  0
LINE
  8
0
 10
-0.3837815054000403
 20
-1.349646455793878
 30
0
 11
-0.3530284455160891
 21
-1.349646455793878
 31
0
  0
LINE
  8
0
 10
-0.3837815054000403
 20
-1.296271773362678
 30
0
 11
-0.3532740964406294
 21
-1.296271773362678
 31
0
  0
LINE
  8
0
 10
-0.3837815054000403
 20
-1.25957873454567
 30
0
 11
-0.3392719937455986
 21
-1.25957873454567
 31
0
  0
LINE
  8
0
 10
-0.3837815054000403
 20
-1.25957873454567
 30
0
 11
-0.3837815054000403
 21
-1.296271773362678
 31
0
  0
LINE
  8
0
 10
-0.2566126074259992
 20
-1.308900701708997
 30
0
 11
-0.2541670793488902
 21
-1.298451627197679
 31
0
  0
LINE
  8
0
 10
-0.2849926929295889
 20
-1.309000837178668
 30
0
 11
-0.2566126074259992
 21
-1.308900701708997
 31
0
  0
LINE
  8
0
 10
-0.2915688238268394
 20
-1.307219801727279
 30
0
 11
-0.2849926929295889
 21
-1.309000837178668
 31
0
  0
LINE
  8
0
 10
-0.29704893290777
 20
-1.302424706281468
 30
0
 11
-0.2915688238268394
 21
-1.307219801727279
 31
0
  0
LINE
  8
0
 10
-0.3011590147187089
 20
-1.295163561749057
 30
0
 11
-0.29704893290777
 21
-1.302424706281468
 31
0
  0
LINE
  8
0
 10
-0.3031276965788202
 20
-1.287217403581468
 30
0
 11
-0.3011590147187089
 21
-1.295163561749057
 31
0
  0
LINE
  8
0
 10
-0.3031276965788202
 20
-1.281463289046569
 30
0
 11
-0.3031276965788202
 21
-1.287217403581468
 31
0
  0
LINE
  8
0
 10
-0.3006110038106399
 20
-1.27324312542504
 30
0
 11
-0.3031276965788202
 21
-1.281463289046569
 31
0
  0
LINE
  8
0
 10
-0.2973229383617199
 20
-1.26666699452755
 30
0
 11
-0.3006110038106399
 21
-1.27324312542504
 31
0
  0
LINE
  8
0
 10
-0.291157815645789
 20
-1.26255691271694
 30
0
 11
-0.2973229383617199
 21
-1.26666699452755
 31
0
  0
LINE
  8
0
 10
-0.2849926929295889
 20
-1.25957873454567
 30
0
 11
-0.291157815645789
 21
-1.26255691271694
 31
0
  0
LINE
  8
0
 10
-0.2723884420429986
 20
-1.25957873454567
 30
0
 11
-0.2849926929295889
 21
-1.25957873454567
 31
0
  0
LINE
  8
0
 10
-0.2662233193271586
 20
-1.261871899081769
 30
0
 11
-0.2723884420429986
 21
-1.25957873454567
 31
0
  0
LINE
  8
0
 10
-0.2607432102461298
 20
-1.26666699452755
 30
0
 11
-0.2662233193271586
 21
-1.261871899081769
 31
0
  0
LINE
  8
0
 10
-0.2564961257080886
 20
-1.272832117243768
 30
0
 11
-0.2607432102461298
 21
-1.26666699452755
 31
0
  0
LINE
  8
0
 10
-0.2543040820757287
 20
-1.281189283592379
 30
0
 11
-0.2564961257080886
 21
-1.272832117243768
 31
0
  0
LINE
  8
0
 10
-0.2541670793488902
 20
-1.298451627197679
 30
0
 11
-0.2543040820757287
 21
-1.281189283592379
 31
0
  0
LINE
  8
0
 10
-0.2586881693405285
 20
-1.317769011708267
 30
0
 11
-0.2566126074259992
 21
-1.308900701708997
 31
0
  0
LINE
  8
0
 10
-0.2645792866027787
 20
-1.327496205327268
 30
0
 11
-0.2586881693405285
 21
-1.317769011708267
 31
0
  0
LINE
  8
0
 10
-0.2786905674862992
 20
-1.340922472575578
 30
0
 11
-0.2645792866027787
 21
-1.327496205327268
 31
0
  0
LINE
  8
0
 10
-0.2969119301807496
 20
-1.349646455793878
 30
0
 11
-0.2786905674862992
 21
-1.340922472575578
 31
0
  0
LINE
  8
0
 10
-0.1232231083228999
 20
-1.349646455793878
 30
0
 11
-0.09216707934889018
 21
-1.349646455793878
 31
0
  0
LINE
  8
0
 10
-0.130521990707919
 20
-1.347695192474999
 30
0
 11
-0.1232231083228999
 21
-1.349646455793878
 31
0
  0
LINE
  8
0
 10
-0.1348154509349388
 20
-1.345262231679928
 30
0
 11
-0.130521990707919
 21
-1.347695192474999
 31
0
  0
LINE
  8
0
 10
-0.1388226804809092
 20
-1.340968771452928
 30
0
 11
-0.1348154509349388
 21
-1.345262231679928
 31
0
  0
LINE
  8
0
 10
-0.1408262952538989
 20
-1.331809389635429
 30
0
 11
-0.1388226804809092
 21
-1.340968771452928
 31
0
  0
LINE
  8
0
 10
-0.1408262952538989
 20
-1.30404501350128
 30
0
 11
-0.1408262952538989
 21
-1.331809389635429
 31
0
  0
LINE
  8
0
 10
-0.13896579582292
 20
-1.2954580930476
 30
0
 11
-0.1408262952538989
 21
-1.30404501350128
 31
0
  0
LINE
  8
0
 10
-0.1349585662768695
 20
-1.29059217145708
 30
0
 11
-0.13896579582292
 21
-1.2954580930476
 31
0
  0
LINE
  8
0
 10
-0.130521990707919
 20
-1.288445441343589
 30
0
 11
-0.1349585662768695
 21
-1.29059217145708
 31
0
  0
LINE
  8
0
 10
-0.122650646957909
 20
-1.2865036032096
 30
0
 11
-0.130521990707919
 21
-1.288445441343589
 31
0
  0
LINE
  8
0
 10
-0.09231019468784872
 20
-1.2865036032096
 30
0
 11
-0.122650646957909
 21
-1.2865036032096
 31
0
  0
LINE
  8
0
 10
-0.04019173039485941
 20
-1.349646455793878
 30
0
 11
-0.04019173039485941
 21
-1.2865036032096
 31
0
  0
LINE
  8
0
 10
-0.01116707934889018
 20
-1.297400592940219
 30
0
 11
-0.01116707934889018
 21
-1.349646455793878
 31
0
  0
LINE
  8
0
 10
-0.01441459275291891
 20
-1.292326353246928
 30
0
 11
-0.01116707934889018
 21
-1.297400592940219
 31
0
  0
LINE
  8
0
 10
-0.0176621061568585
 20
-1.288672900667709
 30
0
 11
-0.01441459275291891
 21
-1.292326353246928
 31
0
  0
LINE
  8
0
 10
-0.02375119379088937
 20
-1.2865036032096
 30
0
 11
-0.0176621061568585
 21
-1.288672900667709
 31
0
  0
LINE
  8
0
 10
-0.06779559432888892
 20
-1.2865036032096
 30
0
 11
-0.02375119379088937
 21
-1.2865036032096
 31
0
  0
LINE
  8
0
 10
-0.06860747267991973
 20
-1.349646455793878
 30
0
 11
-0.06779559432888892
 21
-1.2865036032096
 31
0
  0
LINE
  8
0
 10
0.1330866183810704
 20
-1.2865036032096
 30
0
 11
0.1018738024329814
 21
-1.2865036032096
 31
0
  0
LINE
  8
0
 10
0.1400992700850311
 20
-1.288874787366291
 30
0
 11
0.1330866183810704
 21
-1.2865036032096
 31
0
  0
LINE
  8
0
 10
0.1445358456540707
 20
-1.291164632820637
 30
0
 11
0.1400992700850311
 21
-1.288874787366291
 31
0
  0
LINE
  8
0
 10
0.1478274984930304
 20
-1.295314977706788
 30
0
 11
0.1445358456540707
 21
-1.291164632820637
 31
0
  0
LINE
  8
0
 10
0.1508329206511098
 20
-1.304188128842397
 30
0
 11
0.1478274984930304
 21
-1.295314977706788
 31
0
  0
LINE
  8
0
 10
0.1508329206511098
 20
-1.331666274294617
 30
0
 11
0.1508329206511098
 21
-1.304188128842397
 31
0
  0
LINE
  8
0
 10
0.1488293058810104
 20
-1.3406825407713
 30
0
 11
0.1508329206511098
 21
-1.331666274294617
 31
0
  0
LINE
  8
0
 10
0.1439633842890707
 20
-1.344976000998278
 30
0
 11
0.1488293058810104
 21
-1.3406825407713
 31
0
  0
LINE
  8
0
 10
0.1406717314500202
 20
-1.34726584645261
 30
0
 11
0.1439633842890707
 21
-1.344976000998278
 31
0
  0
LINE
  8
0
 10
0.1325141570159903
 20
-1.349646455793878
 30
0
 11
0.1406717314500202
 21
-1.34726584645261
 31
0
  0
LINE
  8
0
 10
0.102173704746021
 20
-1.349646455793878
 30
0
 11
0.1325141570159903
 21
-1.349646455793878
 31
0
  0
LINE
  8
0
 10
0.10174435872303
 20
-1.25924991180058
 30
0
 11
0.102173704746021
 21
-1.349646455793878
 31
0
  0
LINE
  8
0
 10
0.2318329206511098
 20
-1.317927201568207
 30
0
 11
0.1833168200851505
 21
-1.318070316908957
 31
0
  0
LINE
  8
0
 10
0.2318329206511098
 20
-1.3043312441829
 30
0
 11
0.2318329206511098
 21
-1.317927201568207
 31
0
  0
LINE
  8
0
 10
0.2302586519011911
 20
-1.295887439069989
 30
0
 11
0.2318329206511098
 21
-1.3043312441829
 31
0
  0
LINE
  8
0
 10
0.2262514223552298
 20
-1.291593978843008
 30
0
 11
0.2302586519011911
 21
-1.295887439069989
 31
0
  0
LINE
  8
0
 10
0.2213855007661714
 20
-1.28844544134333
 30
0
 11
0.2262514223552298
 21
-1.291593978843008
 31
0
  0
LINE
  8
0
 10
0.2139435030391414
 20
-1.2865036032096
 30
0
 11
0.2213855007661714
 21
-1.28844544134333
 31
0
  0
LINE
  8
0
 10
0.2013493530392097
 20
-1.2865036032096
 30
0
 11
0.2139435030391414
 21
-1.2865036032096
 31
0
  0
LINE
  8
0
 10
0.1934780092892015
 20
-1.28844544134333
 30
0
 11
0.2013493530392097
 21
-1.2865036032096
 31
0
  0
LINE
  8
0
 10
0.18961389508516
 20
-1.291307748161118
 30
0
 11
0.1934780092892015
 21
-1.28844544134333
 31
0
  0
LINE
  8
0
 10
0.1857497808812004
 20
-1.295028747024568
 30
0
 11
0.18961389508516
 21
-1.291307748161118
 31
0
  0
LINE
  8
0
 10
0.1833168200851505
 20
-1.304474359523709
 30
0
 11
0.1857497808812004
 21
-1.295028747024568
 31
0
  0
LINE
  8
0
 10
0.1833168200851505
 20
-1.33109381293082
 30
0
 11
0.1833168200851505
 21
-1.304474359523709
 31
0
  0
LINE
  8
0
 10
0.1860360115651401
 20
-1.340253194748278
 30
0
 11
0.1833168200851505
 21
-1.33109381293082
 31
0
  0
LINE
  8
0
 10
0.1887552030421612
 20
-1.344546654975038
 30
0
 11
0.1860360115651401
 21
-1.340253194748278
 31
0
  0
LINE
  8
0
 10
0.1936211246311304
 20
-1.34726584645197
 30
0
 11
0.1887552030421612
 21
-1.344546654975038
 31
0
  0
LINE
  8
0
 10
0.2019218144041206
 20
-1.349646455793878
 30
0
 11
0.1936211246311304
 21
-1.34726584645197
 31
0
  0
LINE
  8
0
 10
0.2318329206511098
 20
-1.349646455793878
 30
0
 11
0.2019218144041206
 21
-1.349646455793878
 31
0
  0
LINE
  8
0
 10
0.2584132463970618
 20
-1.349646455793878
 30
0
 11
0.2584132463970618
 21
-1.2865036032096
 31
0
  0
LINE
  8
0
 10
0.2588329206511098
 20
-1.259440118038237
 30
0
 11
0.2588329206511098
 21
-1.264196426233779
 31
0
  0
LINE
  8
0
 10
0.4125290219259496
 20
-1.264134515641188
 30
0
 11
0.4182106368429795
 21
-1.268614250479437
 31
0
  0
LINE
  8
0
 10
0.4070659306596918
 20
-1.262277064610367
 30
0
 11
0.4125290219259496
 21
-1.264134515641188
 31
0
  0
LINE
  8
0
 10
0.3963582717771806
 20
-1.25957873454567
 30
0
 11
0.4070659306596918
 21
-1.262277064610367
 31
0
  0
LINE
  8
0
 10
0.388163634877581
 20
-1.25957873454567
 30
0
 11
0.3963582717771806
 21
-1.25957873454567
 31
0
  0
LINE
  8
0
 10
0.3742873830606823
 20
-1.264243777466338
 30
0
 11
0.388163634877581
 21
-1.25957873454567
 31
0
  0
LINE
  8
0
 10
0.3677316735408804
 20
-1.268832774130169
 30
0
 11
0.3742873830606823
 21
-1.264243777466338
 31
0
  0
LINE
  8
0
 10
0.3660927461610791
 20
-1.27560700730067
 30
0
 11
0.3677316735408804
 21
-1.268832774130169
 31
0
  0
LINE
  8
0
 10
0.3657649606851719
 20
-1.28063305126589
 30
0
 11
0.3660927461610791
 21
-1.27560700730067
 31
0
  0
LINE
  8
0
 10
0.3679501971915689
 20
-1.28686097530945
 30
0
 11
0.3657649606851719
 21
-1.28063305126589
 31
0
  0
LINE
  8
0
 10
0.373304026632699
 20
-1.29068513919595
 30
0
 11
0.3679501971915689
 21
-1.28686097530945
 31
0
  0
LINE
  8
0
 10
0.4082678107381015
 20
-1.30718367482067
 30
0
 11
0.373304026632699
 21
-1.29068513919595
 31
0
  0
LINE
  8
0
 10
0.4141679493058312
 20
-1.311554147834078
 30
0
 11
0.4082678107381015
 21
-1.30718367482067
 31
0
  0
LINE
  8
0
 10
0.4183198986684603
 20
-1.318109857353578
 30
0
 11
0.4141679493058312
 21
-1.311554147834078
 31
0
  0
LINE
  8
0
 10
0.4202866115245106
 20
-1.32466556687338
 30
0
 11
0.4183198986684603
 21
-1.318109857353578
 31
0
  0
LINE
  8
0
 10
0.4208329206511098
 20
-1.329910134489288
 30
0
 11
0.4202866115245106
 21
-1.32466556687338
 31
0
  0
LINE
  8
0
 10
0.4185384223191522
 20
-1.33581027305697
 30
0
 11
0.4208329206511098
 21
-1.329910134489288
 31
0
  0
LINE
  8
0
 10
0.4148235202579108
 20
-1.342912291703367
 30
0
 11
0.4185384223191522
 21
-1.33581027305697
 31
0
  0
LINE
  8
0
 10
0.4087048580394894
 20
-1.34728276471647
 30
0
 11
0.4148235202579108
 21
-1.342912291703367
 31
0
  0
LINE
  8
0
 10
0.3988712937598302
 20
-1.349646455793878
 30
0
 11
0.4087048580394894
 21
-1.34728276471647
 31
0
  0
LINE
  8
0
 10
0.3858691365456998
 20
-1.349646455793878
 30
0
 11
0.3988712937598302
 21
-1.349646455793878
 31
0
  0
LINE
  8
0
 10
0.3763633577418605
 20
-1.347501288367188
 30
0
 11
0.3858691365456998
 21
-1.349646455793878
 31
0
  0
LINE
  8
0
 10
0.3679501971915689
 20
-1.343240077179278
 30
0
 11
0.3763633577418605
 21
-1.347501288367188
 31
0
  0
LINE
  8
0
 10
0.3637154261985688
 20
-1.338432556864769
 30
0
 11
0.3679501971915689
 21
-1.343240077179278
 31
0
  0
LINE
  8
0
 10
0.4488306878280801
 20
-1.349646455793878
 30
0
 11
0.4488306878280801
 21
-1.25937043437389
 31
0
  0
LINE
  8
0
 10
0.4413024616110324
 20
-1.2865036032096
 30
0
 11
0.4613329206511098
 21
-1.2865036032096
 31
0
  0
LINE
  8
0
 10
0.5423329206511099
 20
-1.317927201568207
 30
0
 11
0.4938168200851524
 21
-1.318070316908957
 31
0
  0
LINE
  8
0
 10
0.5423329206511099
 20
-1.3043312441829
 30
0
 11
0.5423329206511099
 21
-1.317927201568207
 31
0
  0
LINE
  8
0
 10
0.5407586519011911
 20
-1.295887439069989
 30
0
 11
0.5423329206511099
 21
-1.3043312441829
 31
0
  0
LINE
  8
0
 10
0.5367514223552297
 20
-1.291593978843008
 30
0
 11
0.5407586519011911
 21
-1.295887439069989
 31
0
  0
LINE
  8
0
 10
0.5318855007661714
 20
-1.28844544134333
 30
0
 11
0.5367514223552297
 21
-1.291593978843008
 31
0
  0
LINE
  8
0
 10
0.5244435030391414
 20
-1.2865036032096
 30
0
 11
0.5318855007661714
 21
-1.28844544134333
 31
0
  0
LINE
  8
0
 10
0.5118493530392098
 20
-1.2865036032096
 30
0
 11
0.5244435030391414
 21
-1.2865036032096
 31
0
  0
LINE
  8
0
 10
0.5039780092892017
 20
-1.28844544134333
 30
0
 11
0.5118493530392098
 21
-1.2865036032096
 31
0
  0
LINE
  8
0
 10
0.5001138950851619
 20
-1.291307748161118
 30
0
 11
0.5039780092892017
 21
-1.28844544134333
 31
0
  0
LINE
  8
0
 10
0.4962497808812023
 20
-1.295028747024568
 30
0
 11
0.5001138950851619
 21
-1.291307748161118
 31
0
  0
LINE
  8
0
 10
0.4938168200851524
 20
-1.304474359523709
 30
0
 11
0.4962497808812023
 21
-1.295028747024568
 31
0
  0
LINE
  8
0
 10
0.4938168200851524
 20
-1.33109381293082
 30
0
 11
0.4938168200851524
 21
-1.304474359523709
 31
0
  0
LINE
  8
0
 10
0.4965360115651401
 20
-1.340253194748278
 30
0
 11
0.4938168200851524
 21
-1.33109381293082
 31
0
  0
LINE
  8
0
 10
0.4992552030421593
 20
-1.344546654975038
 30
0
 11
0.4965360115651401
 21
-1.340253194748278
 31
0
  0
LINE
  8
0
 10
0.5041211246311303
 20
-1.34726584645197
 30
0
 11
0.4992552030421593
 21
-1.344546654975038
 31
0
  0
LINE
  8
0
 10
0.5124218144041205
 20
-1.349646455793878
 30
0
 11
0.5041211246311303
 21
-1.34726584645197
 31
0
  0
LINE
  8
0
 10
0.5423329206511099
 20
-1.349646455793878
 30
0
 11
0.5124218144041205
 21
-1.349646455793878
 31
0
  0
LINE
  8
0
 10
0.568913246397062
 20
-1.349646455793878
 30
0
 11
0.568913246397062
 21
-1.2865036032096
 31
0
  0
LINE
  8
0
 10
0.5693329206511099
 20
-1.259440118038237
 30
0
 11
0.5693329206511099
 21
-1.264196426233779
 31
0
  0
LINE
  8
0
 10
0.6499269814741111
 20
-1.298212471291208
 30
0
 11
0.6503329206511098
 21
-1.349646455793878
 31
0
  0
LINE
  8
0
 10
0.6472883768341399
 20
-1.293544170773377
 30
0
 11
0.6499269814741111
 21
-1.298212471291208
 31
0
  0
LINE
  8
0
 10
0.6438378938431397
 20
-1.289687748606299
 30
0
 11
0.6472883768341399
 21
-1.293544170773377
 31
0
  0
LINE
  8
0
 10
0.6373428670350824
 20
-1.2865036032096
 30
0
 11
0.6438378938431397
 21
-1.289687748606299
 31
0
  0
LINE
  8
0
 10
0.601417250007109
 20
-1.2865036032096
 30
0
 11
0.6373428670350824
 21
-1.2865036032096
 31
0
  0
LINE
  8
0
 10
0.6008083412431424
 20
-1.349646455793878
 30
0
 11
0.601417250007109
 21
-1.2865036032096
 31
0
  0
LINE
  8
0
 10
0.7264933466551101
 20
-1.2932474523489
 30
0
 11
0.7307951902081422
 21
-1.300103515510178
 31
0
  0
LINE
  8
0
 10
0.7204438791601406
 20
-1.28867674357443
 30
0
 11
0.7264933466551101
 21
-1.2932474523489
 31
0
  0
LINE
  8
0
 10
0.710899163778131
 20
-1.2865036032096
 30
0
 11
0.7204438791601406
 21
-1.28867674357443
 31
0
  0
LINE
  8
0
 10
0.7032365049511009
 20
-1.2865036032096
 30
0
 11
0.710899163778131
 21
-1.2865036032096
 31
0
  0
LINE
  8
0
 10
0.6940950874021601
 20
-1.28867674357443
 30
0
 11
0.7032365049511009
 21
-1.2865036032096
 31
0
  0
LINE
  8
0
 10
0.6889866481831506
 20
-1.292978587126778
 30
0
 11
0.6940950874021601
 21
-1.28867674357443
 31
0
  0
LINE
  8
0
 10
0.6845503720201505
 20
-1.29728043067921
 30
0
 11
0.6889866481831506
 21
-1.292978587126778
 31
0
  0
LINE
  8
0
 10
0.6821305850221124
 20
-1.301851139453378
 30
0
 11
0.6845503720201505
 21
-1.29728043067921
 31
0
  0
LINE
  8
0
 10
0.6818617197990916
 20
-1.306825146060939
 30
0
 11
0.6821305850221124
 21
-1.301851139453378
 31
0
  0
LINE
  8
0
 10
0.6840126415771792
 20
-1.31153028744633
 30
0
 11
0.6818617197990916
 21
-1.306825146060939
 31
0
  0
LINE
  8
0
 10
0.6880456199070996
 20
-1.313412344000368
 30
0
 11
0.6840126415771792
 21
-1.31153028744633
 31
0
  0
LINE
  8
0
 10
0.7242079922671419
 20
-1.323091491993
 30
0
 11
0.6880456199070996
 21
-1.313412344000368
 31
0
  0
LINE
  8
0
 10
0.7283754032101806
 20
-1.324570250714089
 30
0
 11
0.7242079922671419
 21
-1.323091491993
 31
0
  0
LINE
  8
0
 10
0.73133292065111
 20
-1.329678689932509
 30
0
 11
0.7283754032101806
 21
-1.324570250714089
 31
0
  0
LINE
  8
0
 10
0.7306607575951003
 20
-1.333980533484879
 30
0
 11
0.73133292065111
 21
-1.329678689932509
 31
0
  0
LINE
  8
0
 10
0.7290475662631306
 20
-1.338416809648239
 30
0
 11
0.7306607575951003
 21
-1.333980533484879
 31
0
  0
LINE
  8
0
 10
0.7255523183791501
 20
-1.342584220589688
 30
0
 11
0.7290475662631306
 21
-1.338416809648239
 31
0
  0
LINE
  8
0
 10
0.7192339856611598
 20
-1.347558227196929
 30
0
 11
0.7255523183791501
 21
-1.342584220589688
 31
0
  0
LINE
  8
0
 10
0.7114368942211895
 20
-1.349646455793878
 30
0
 11
0.7192339856611598
 21
-1.347558227196929
 31
0
  0
LINE
  8
0
 10
0.7021610440621897
 20
-1.349646455793878
 30
0
 11
0.7114368942211895
 21
-1.349646455793878
 31
0
  0
LINE
  8
0
 10
0.6926163286801693
 20
-1.347692659808108
 30
0
 11
0.7021610440621897
 21
-1.349646455793878
 31
0
  0
LINE
  8
0
 10
0.6865668611851125
 20
-1.343256383644799
 30
0
 11
0.6926163286801693
 21
-1.347692659808108
 31
0
  0
LINE
  8
0
 10
0.6821305850221124
 20
-1.336265887872029
 30
0
 11
0.6865668611851125
 21
-1.343256383644799
 31
0
  0
LINE
  8
0
 10
0.7593306878280801
 20
-1.349646455793878
 30
0
 11
0.7593306878280801
 21
-1.25937043437389
 31
0
  0
LINE
  8
0
 10
0.7518024616110326
 20
-1.2865036032096
 30
0
 11
0.7718329206511099
 21
-1.2865036032096
 31
0
  0
LINE
  8
0
 10
0.8219893019730898
 20
-1.349646455793878
 30
0
 11
0.85283292065111
 21
-1.349646455793878
 31
0
  0
LINE
  8
0
 10
0.8147570051821404
 20
-1.34713865353951
 30
0
 11
0.8219893019730898
 21
-1.349646455793878
 31
0
  0
LINE
  8
0
 10
0.8096518545031303
 20
-1.345436936646889
 30
0
 11
0.8147570051821404
 21
-1.34713865353951
 31
0
  0
LINE
  8
0
 10
0.8064611353321106
 20
-1.341182644416018
 30
0
 11
0.8096518545031303
 21
-1.345436936646889
 31
0
  0
LINE
  8
0
 10
0.8039085599911215
 20
-1.332035916119079
 30
0
 11
0.8064611353321106
 21
-1.341182644416018
 31
0
  0
LINE
  8
0
 10
0.8039085599911215
 20
-1.2865036032096
 30
0
 11
0.8039085599911215
 21
-1.332035916119079
 31
0
  0
LINE
  8
0
 10
0.85283292065111
 20
-1.2865036032096
 30
0
 11
0.85283292065111
 21
-1.349646455793878
 31
0
  0
LINE
  8
0
 10
0.868860197358079
 20
-1.291021517479479
 30
0
 11
0.8929035746281315
 21
-1.291021517479479
 31
0
  0
LINE
  8
0
 10
0.8770177717891511
 20
-1.274992599298828
 30
0
 11
0.8771608871311599
 21
-1.349646455793878
 31
0
  0
LINE
  8
0
 10
0.8793076172431011
 20
-1.266548794185939
 30
0
 11
0.8770177717891511
 21
-1.274992599298828
 31
0
  0
LINE
  8
0
 10
0.8834579621311696
 20
-1.26139664191378
 30
0
 11
0.8793076172431011
 21
-1.266548794185939
 31
0
  0
LINE
  8
0
 10
0.8884669990621497
 20
-1.259679257822987
 30
0
 11
0.8834579621311696
 21
-1.26139664191378
 31
0
  0
LINE
  8
0
 10
0.8933329206511098
 20
-1.259822373163799
 30
0
 11
0.8884669990621497
 21
-1.259679257822987
 31
0
  0
LINE
  8
0
 10
0.9743329206511099
 20
-1.317927201568207
 30
0
 11
0.9258168200851526
 21
-1.318070316908957
 31
0
  0
LINE
  8
0
 10
0.9743329206511099
 20
-1.3043312441829
 30
0
 11
0.9743329206511099
 21
-1.317927201568207
 31
0
  0
LINE
  8
0
 10
0.972758651901191
 20
-1.295887439069989
 30
0
 11
0.9743329206511099
 21
-1.3043312441829
 31
0
  0
LINE
  8
0
 10
0.9687514223552299
 20
-1.291593978843008
 30
0
 11
0.972758651901191
 21
-1.295887439069989
 31
0
  0
LINE
  8
0
 10
0.9638855007661715
 20
-1.28844544134333
 30
0
 11
0.9687514223552299
 21
-1.291593978843008
 31
0
  0
LINE
  8
0
 10
0.9564435030391415
 20
-1.2865036032096
 30
0
 11
0.9638855007661715
 21
-1.28844544134333
 31
0
  0
LINE
  8
0
 10
0.9438493530392097
 20
-1.2865036032096
 30
0
 11
0.9564435030391415
 21
-1.2865036032096
 31
0
  0
LINE
  8
0
 10
0.9359780092892015
 20
-1.28844544134333
 30
0
 11
0.9438493530392097
 21
-1.2865036032096
 31
0
  0
LINE
  8
0
 10
0.932113895085162
 20
-1.291307748161118
 30
0
 11
0.9359780092892015
 21
-1.28844544134333
 31
0
  0
LINE
  8
0
 10
0.9282497808812024
 20
-1.295028747024568
 30
0
 11
0.932113895085162
 21
-1.291307748161118
 31
0
  0
LINE
  8
0
 10
0.9258168200851526
 20
-1.304474359523709
 30
0
 11
0.9282497808812024
 21
-1.295028747024568
 31
0
  0
LINE
  8
0
 10
0.9258168200851526
 20
-1.33109381293082
 30
0
 11
0.9258168200851526
 21
-1.304474359523709
 31
0
  0
LINE
  8
0
 10
0.9285360115651402
 20
-1.340253194748278
 30
0
 11
0.9258168200851526
 21
-1.33109381293082
 31
0
  0
LINE
  8
0
 10
0.9312552030421594
 20
-1.344546654975038
 30
0
 11
0.9285360115651402
 21
-1.340253194748278
 31
0
  0
LINE
  8
0
 10
0.9361211246311305
 20
-1.34726584645197
 30
0
 11
0.9312552030421594
 21
-1.344546654975038
 31
0
  0
LINE
  8
0
 10
0.9444218144041208
 20
-1.349646455793878
 30
0
 11
0.9361211246311305
 21
-1.34726584645197
 31
0
  0
LINE
  8
0
 10
0.9743329206511099
 20
-1.349646455793878
 30
0
 11
0.9444218144041208
 21
-1.349646455793878
 31
0
  0
LINE
  8
0
 10
1.054926981474111
 20
-1.298212471291208
 30
0
 11
1.05533292065111
 21
-1.349646455793878
 31
0
  0
LINE
  8
0
 10
1.05228837683414
 20
-1.293544170773377
 30
0
 11
1.054926981474111
 21
-1.298212471291208
 31
0
  0
LINE
  8
0
 10
1.04883789384314
 20
-1.289687748606299
 30
0
 11
1.05228837683414
 21
-1.293544170773377
 31
0
  0
LINE
  8
0
 10
1.042342867035082
 20
-1.2865036032096
 30
0
 11
1.04883789384314
 21
-1.289687748606299
 31
0
  0
LINE
  8
0
 10
1.006417250007109
 20
-1.2865036032096
 30
0
 11
1.042342867035082
 21
-1.2865036032096
 31
0
  0
LINE
  8
0
 10
1.005808341243142
 20
-1.349646455793878
 30
0
 11
1.006417250007109
 21
-1.2865036032096
 31
0
  0
LINE
  8
0
 10
-0.9859183629976087
 20
-1.223051982443478
 30
0
 11
-0.9859183629976087
 21
-1.132984261195248
 31
0
  0
LINE
  8
0
 10
-0.9291670793488902
 20
-1.132984261195248
 30
0
 11
-0.9291670793488902
 21
-1.223051982443478
 31
0
  0
LINE
  8
0
 10
-0.9291670793488902
 20
-1.223051982443478
 30
0
 11
-0.9859183629976087
 21
-1.132984261195248
 31
0
  0
LINE
  8
0
 10
-0.89729192041046
 20
-1.223051982443478
 30
0
 11
-0.8481670793488902
 21
-1.223051982443478
 31
0
  0
LINE
  8
0
 10
-0.89729192041046
 20
-1.13298426119527
 30
0
 11
-0.89729192041046
 21
-1.223051982443478
 31
0
  0
LINE
  8
0
 10
-0.8199544367449291
 20
-1.173931642485368
 30
0
 11
-0.8199544367449291
 21
-1.13298426119527
 31
0
  0
LINE
  8
0
 10
-0.8199544367449291
 20
-1.173931642485368
 30
0
 11
-0.7875761132482295
 21
-1.173931642485368
 31
0
  0
LINE
  8
0
 10
-0.7842776835271397
 20
-1.223051982443478
 30
0
 11
-0.8199544367449291
 21
-1.223051982443478
 31
0
  0
LINE
  8
0
 10
-0.7747946980789293
 20
-1.218666595578077
 30
0
 11
-0.7842776835271397
 21
-1.223051982443478
 31
0
  0
LINE
  8
0
 10
-0.7708778127850602
 20
-1.214543558426478
 30
0
 11
-0.7747946980789293
 21
-1.218666595578077
 31
0
  0
LINE
  8
0
 10
-0.7671670793488902
 20
-1.205679028551069
 30
0
 11
-0.7708778127850602
 21
-1.214543558426478
 31
0
  0
LINE
  8
0
 10
-0.7673732312062493
 20
-1.19351606895429
 30
0
 11
-0.7671670793488902
 21
-1.205679028551069
 31
0
  0
LINE
  8
0
 10
-0.7710839646424192
 20
-1.183002324218487
 30
0
 11
-0.7673732312062493
 21
-1.19351606895429
 31
0
  0
LINE
  8
0
 10
-0.77603160922423
 20
-1.177848527778988
 30
0
 11
-0.7710839646424192
 21
-1.183002324218487
 31
0
  0
LINE
  8
0
 10
-0.7845904656559486
 20
-1.172737383448439
 30
0
 11
-0.77603160922423
 21
-1.177848527778988
 31
0
  0
LINE
  8
0
 10
-0.7845904656559486
 20
-1.172737383448439
 30
0
 11
-0.7875761132482295
 21
-1.173931642485368
 31
0
  0
LINE
  8
0
 10
-0.7875761132482295
 20
-1.173931642485368
 30
0
 11
-0.7845904656559486
 21
-1.172737383448439
 31
0
  0
LINE
  8
0
 10
-0.7813915575211194
 20
-1.17145782019449
 30
0
 11
-0.7845904656559486
 21
-1.172737383448439
 31
0
  0
LINE
  8
0
 10
-0.7756193055091589
 20
-1.167540934900568
 30
0
 11
-0.7813915575211194
 21
-1.17145782019449
 31
0
  0
LINE
  8
0
 10
-0.7708778127850602
 20
-1.158470253167477
 30
0
 11
-0.7756193055091589
 21
-1.167540934900568
 31
0
  0
LINE
  8
0
 10
-0.7714962683578398
 20
-1.15001802700714
 30
0
 11
-0.7708778127850602
 21
-1.158470253167477
 31
0
  0
LINE
  8
0
 10
-0.7735577869333702
 20
-1.141978104561989
 30
0
 11
-0.7714962683578398
 21
-1.15001802700714
 31
0
  0
LINE
  8
0
 10
-0.7795361908030389
 20
-1.135587396977178
 30
0
 11
-0.7735577869333702
 21
-1.141978104561989
 31
0
  0
LINE
  8
0
 10
-0.7896376318237599
 20
-1.13298426119527
 30
0
 11
-0.7795361908030389
 21
-1.135587396977178
 31
0
  0
LINE
  8
0
 10
-0.8199544367449291
 20
-1.13298426119527
 30
0
 11
-0.7896376318237599
 21
-1.13298426119527
 31
0
  0
LINE
  8
0
 10
-0.8199544367449291
 20
-1.223051982443478
 30
0
 11
-0.8199544367449291
 21
-1.173931642485368
 31
0
  0
LINE
  8
0
 10
-0.6362231083228999
 20
-1.223051982443478
 30
0
 11
-0.6051670793488902
 21
-1.223051982443478
 31
0
  0
LINE
  8
0
 10
-0.6435219907079189
 20
-1.221100719124599
 30
0
 11
-0.6362231083228999
 21
-1.223051982443478
 31
0
  0
LINE
  8
0
 10
-0.6478154509349389
 20
-1.218667758329528
 30
0
 11
-0.6435219907079189
 21
-1.221100719124599
 31
0
  0
LINE
  8
0
 10
-0.6518226804809092
 20
-1.214374298102528
 30
0
 11
-0.6478154509349389
 21
-1.218667758329528
 31
0
  0
LINE
  8
0
 10
-0.6538262952538989
 20
-1.205214916285029
 30
0
 11
-0.6518226804809092
 21
-1.214374298102528
 31
0
  0
LINE
  8
0
 10
-0.6538262952538989
 20
-1.17745054015088
 30
0
 11
-0.6538262952538989
 21
-1.205214916285029
 31
0
  0
LINE
  8
0
 10
-0.6519657958229291
 20
-1.1688636196972
 30
0
 11
-0.6538262952538989
 21
-1.17745054015088
 31
0
  0
LINE
  8
0
 10
-0.6479585662768697
 20
-1.163997698106679
 30
0
 11
-0.6519657958229291
 21
-1.1688636196972
 31
0
  0
LINE
  8
0
 10
-0.6435219907079189
 20
-1.161850967993189
 30
0
 11
-0.6479585662768697
 21
-1.163997698106679
 31
0
  0
LINE
  8
0
 10
-0.6356506469579088
 20
-1.159909129859199
 30
0
 11
-0.6435219907079189
 21
-1.161850967993189
 31
0
  0
LINE
  8
0
 10
-0.6053101946878486
 20
-1.159909129859199
 30
0
 11
-0.6356506469579088
 21
-1.159909129859199
 31
0
  0
LINE
  8
0
 10
-0.5281320807634802
 20
-1.20735851758629
 30
0
 11
-0.528016350548849
 21
-1.159909129859199
 31
0
  0
LINE
  8
0
 10
-0.5322357439798797
 20
-1.21638978228793
 30
0
 11
-0.5281320807634802
 21
-1.20735851758629
 31
0
  0
LINE
  8
0
 10
-0.5381576996729293
 20
-1.220757224612178
 30
0
 11
-0.5322357439798797
 21
-1.21638978228793
 31
0
  0
LINE
  8
0
 10
-0.5463744131999192
 20
-1.223051982443478
 30
0
 11
-0.5381576996729293
 21
-1.220757224612178
 31
0
  0
LINE
  8
0
 10
-0.5584403979238887
 20
-1.223051982443478
 30
0
 11
-0.5463744131999192
 21
-1.223051982443478
 31
0
  0
LINE
  8
0
 10
-0.5666571114508697
 20
-1.220683200166
 30
0
 11
-0.5584403979238887
 21
-1.223051982443478
 31
0
  0
LINE
  8
0
 10
-0.5728011404818899
 20
-1.216093684503408
 30
0
 11
-0.5666571114508697
 21
-1.220683200166
 31
0
  0
LINE
  8
0
 10
-0.5766504116848993
 20
-1.207284775408927
 30
0
 11
-0.5728011404818899
 21
-1.216093684503408
 31
0
  0
LINE
  8
0
 10
-0.5767244361299291
 20
-1.17552828800138
 30
0
 11
-0.5766504116848993
 21
-1.207284775408927
 31
0
  0
LINE
  8
0
 10
-0.572579067143919
 20
-1.166719378906899
 30
0
 11
-0.5767244361299291
 21
-1.17552828800138
 31
0
  0
LINE
  8
0
 10
-0.5666571114508697
 20
-1.16212986324431
 30
0
 11
-0.572579067143919
 21
-1.166719378906899
 31
0
  0
LINE
  8
0
 10
-0.558292349033829
 20
-1.159909129859199
 30
0
 11
-0.5666571114508697
 21
-1.16212986324431
 31
0
  0
LINE
  8
0
 10
-0.528016350548849
 20
-1.159909129859199
 30
0
 11
-0.558292349033829
 21
-1.159909129859199
 31
0
  0
LINE
  8
0
 10
-0.5281643994418701
 20
-1.220609175719808
 30
0
 11
-0.5281320807634802
 21
-1.20735851758629
 31
0
  0
LINE
  8
0
 10
-0.5260917149488687
 20
-1.223051982443478
 30
0
 11
-0.5281643994418701
 21
-1.220609175719808
 31
0
  0
LINE
  8
0
 10
-0.5241670793488902
 20
-1.223051982443478
 30
0
 11
-0.5260917149488687
 21
-1.223051982443478
 31
0
  0
LINE
  8
0
 10
-0.4987028775794187
 20
-1.221497818558597
 30
0
 11
-0.4987028775794187
 21
-1.222397885891827
 31
0
  0
LINE
  8
0
 10
-0.4976027952823988
 20
-1.221497818558597
 30
0
 11
-0.4987028775794187
 21
-1.221497818558597
 31
0
  0
LINE
  8
0
 10
-0.4976027952823988
 20
-1.222397885891827
 30
0
 11
-0.4976027952823988
 21
-1.221497818558597
 31
0
  0
LINE
  8
0
 10
-0.4987028775794187
 20
-1.222397885891827
 30
0
 11
-0.4976027952823988
 21
-1.222397885891827
 31
0
  0
LINE
  8
0
 10
-0.499327079348899
 20
-1.220891982443478
 30
0
 11
-0.499327079348899
 21
-1.223051982443478
 31
0
  0
LINE
  8
0
 10
-0.4971670793488903
 20
-1.220891982443478
 30
0
 11
-0.499327079348899
 21
-1.220891982443478
 31
0
  0
LINE
  8
0
 10
-0.4971670793488903
 20
-1.223051982443478
 30
0
 11
-0.4971670793488903
 21
-1.220891982443478
 31
0
  0
LINE
  8
0
 10
-0.499327079348899
 20
-1.223051982443478
 30
0
 11
-0.4971670793488903
 21
-1.223051982443478
 31
0
  0
LINE
  8
0
 10
-0.3818850092648499
 20
-1.18295437473608
 30
0
 11
-0.3841908509645
 21
-1.190900532903688
 31
0
  0
LINE
  8
0
 10
-0.3779119301810188
 20
-1.176104238384669
 30
0
 11
-0.3818850092648499
 21
-1.18295437473608
 31
0
  0
LINE
  8
0
 10
-0.3720208129190287
 20
-1.17185715384697
 30
0
 11
-0.3779119301810188
 21
-1.176104238384669
 31
0
  0
LINE
  8
0
 10
-0.3662666983837989
 20
-1.169391104760387
 30
0
 11
-0.3720208129190287
 21
-1.17185715384697
 31
0
  0
LINE
  8
0
 10
-0.3537994502246602
 20
-1.16966511021457
 30
0
 11
-0.3662666983837989
 21
-1.169391104760387
 31
0
  0
LINE
  8
0
 10
-0.3468123111461101
 20
-1.17213115930088
 30
0
 11
-0.3537994502246602
 21
-1.16966511021457
 31
0
  0
LINE
  8
0
 10
-0.34119519933833
 20
-1.176378243838877
 30
0
 11
-0.3468123111461101
 21
-1.17213115930088
 31
0
  0
LINE
  8
0
 10
-0.3374961257084396
 20
-1.18226936110084
 30
0
 11
-0.34119519933833
 21
-1.176378243838877
 31
0
  0
LINE
  8
0
 10
-0.3353040820759998
 20
-1.191037535630439
 30
0
 11
-0.3374961257084396
 21
-1.18226936110084
 31
0
  0
LINE
  8
0
 10
-0.3351670793488902
 20
-1.201175737430469
 30
0
 11
-0.3353040820759998
 21
-1.191037535630439
 31
0
  0
LINE
  8
0
 10
-0.3372221202544897
 20
-1.210080914687169
 30
0
 11
-0.3351670793488902
 21
-1.201175737430469
 31
0
  0
LINE
  8
0
 10
-0.3410581966112295
 20
-1.215972031949179
 30
0
 11
-0.3372221202544897
 21
-1.210080914687169
 31
0
  0
LINE
  8
0
 10
-0.3469493138732087
 20
-1.220356119213979
 30
0
 11
-0.3410581966112295
 21
-1.215972031949179
 31
0
  0
LINE
  8
0
 10
-0.3528404311355389
 20
-1.223051982443478
 30
0
 11
-0.3469493138732087
 21
-1.220356119213979
 31
0
  0
LINE
  8
0
 10
-0.3661296956570496
 20
-1.223051982443478
 30
0
 11
-0.3528404311355389
 21
-1.223051982443478
 31
0
  0
LINE
  8
0
 10
-0.3725688238270995
 20
-1.22131513830334
 30
0
 11
-0.3661296956570496
 21
-1.223051982443478
 31
0
  0
LINE
  8
0
 10
-0.3780489329081192
 20
-1.216383040130469
 30
0
 11
-0.3725688238270995
 21
-1.22131513830334
 31
0
  0
LINE
  8
0
 10
-0.3820220119919595
 20
-1.209943911960068
 30
0
 11
-0.3780489329081192
 21
-1.216383040130469
 31
0
  0
LINE
  8
0
 10
-0.3841908509645
 20
-1.201312740157569
 30
0
 11
-0.3820220119919595
 21
-1.209943911960068
 31
0
  0
LINE
  8
0
 10
-0.3841908509645
 20
-1.190900532903688
 30
0
 11
-0.3841908509645
 21
-1.201312740157569
 31
0
  0
LINE
  8
0
 10
-0.3822960174458185
 20
-1.17295317566317
 30
0
 11
-0.3841908509645
 21
-1.190900532903688
 31
0
  0
LINE
  8
0
 10
-0.3781859356352197
 20
-1.16418500113357
 30
0
 11
-0.3822960174458185
 21
-1.17295317566317
 31
0
  0
LINE
  8
0
 10
-0.3698287692865888
 20
-1.153635791152537
 30
0
 11
-0.3781859356352197
 21
-1.16418500113357
 31
0
  0
LINE
  8
0
 10
-0.3473603220545192
 20
-1.13298426119527
 30
0
 11
-0.3698287692865888
 21
-1.153635791152537
 31
0
  0
LINE
  8
0
 10
-0.2946670793488902
 20
-1.13298426119527
 30
0
 11
-0.2946670793488902
 21
-1.223051982443478
 31
0
  0
LINE
  8
0
 10
-0.3194437054325099
 20
-1.160219499199549
 30
0
 11
-0.2946670793488902
 21
-1.13298426119527
 31
0
  0
LINE
  8
0
 10
-0.1637231083228999
 20
-1.223051982443478
 30
0
 11
-0.1326670793488902
 21
-1.223051982443478
 31
0
  0
LINE
  8
0
 10
-0.171021990707919
 20
-1.221100719124599
 30
0
 11
-0.1637231083228999
 21
-1.223051982443478
 31
0
  0
LINE
  8
0
 10
-0.1753154509349388
 20
-1.218667758329528
 30
0
 11
-0.171021990707919
 21
-1.221100719124599
 31
0
  0
LINE
  8
0
 10
-0.1793226804809092
 20
-1.214374298102528
 30
0
 11
-0.1753154509349388
 21
-1.218667758329528
 31
0
  0
LINE
  8
0
 10
-0.1813262952538989
 20
-1.205214916285029
 30
0
 11
-0.1793226804809092
 21
-1.214374298102528
 31
0
  0
LINE
  8
0
 10
-0.1813262952538989
 20
-1.17745054015088
 30
0
 11
-0.1813262952538989
 21
-1.205214916285029
 31
0
  0
LINE
  8
0
 10
-0.1794657958229291
 20
-1.1688636196972
 30
0
 11
-0.1813262952538989
 21
-1.17745054015088
 31
0
  0
LINE
  8
0
 10
-0.1754585662768695
 20
-1.163997698106679
 30
0
 11
-0.1794657958229291
 21
-1.1688636196972
 31
0
  0
LINE
  8
0
 10
-0.171021990707919
 20
-1.161850967993189
 30
0
 11
-0.1754585662768695
 21
-1.163997698106679
 31
0
  0
LINE
  8
0
 10
-0.163150646957909
 20
-1.159909129859199
 30
0
 11
-0.171021990707919
 21
-1.161850967993189
 31
0
  0
LINE
  8
0
 10
-0.1328101946878487
 20
-1.159909129859199
 30
0
 11
-0.163150646957909
 21
-1.159909129859199
 31
0
  0
LINE
  8
0
 10
-0.08069173039485943
 20
-1.223051982443478
 30
0
 11
-0.08069173039485943
 21
-1.159909129859199
 31
0
  0
LINE
  8
0
 10
-0.05166707934889016
 20
-1.170806119589819
 30
0
 11
-0.05166707934889016
 21
-1.223051982443478
 31
0
  0
LINE
  8
0
 10
-0.05491459275291891
 20
-1.165731879896528
 30
0
 11
-0.05166707934889016
 21
-1.170806119589819
 31
0
  0
LINE
  8
0
 10
-0.0581621061568585
 20
-1.162078427317309
 30
0
 11
-0.05491459275291891
 21
-1.165731879896528
 31
0
  0
LINE
  8
0
 10
-0.06425119379088938
 20
-1.159909129859199
 30
0
 11
-0.0581621061568585
 21
-1.162078427317309
 31
0
  0
LINE
  8
0
 10
-0.1082955943288889
 20
-1.159909129859199
 30
0
 11
-0.06425119379088938
 21
-1.159909129859199
 31
0
  0
LINE
  8
0
 10
-0.1091074726799197
 20
-1.223051982443478
 30
0
 11
-0.1082955943288889
 21
-1.159909129859199
 31
0
  0
LINE
  8
0
 10
0.09258661838107037
 20
-1.159909129859199
 30
0
 11
0.06137380243298139
 21
-1.159909129859199
 31
0
  0
LINE
  8
0
 10
0.0995992700850311
 20
-1.16228031401589
 30
0
 11
0.09258661838107037
 21
-1.159909129859199
 31
0
  0
LINE
  8
0
 10
0.1040358456540707
 20
-1.16457015947024
 30
0
 11
0.0995992700850311
 21
-1.16228031401589
 31
0
  0
LINE
  8
0
 10
0.1073274984930304
 20
-1.168720504356388
 30
0
 11
0.1040358456540707
 21
-1.16457015947024
 31
0
  0
LINE
  8
0
 10
0.1103329206511098
 20
-1.17759365549199
 30
0
 11
0.1073274984930304
 21
-1.168720504356388
 31
0
  0
LINE
  8
0
 10
0.1103329206511098
 20
-1.205071800944217
 30
0
 11
0.1103329206511098
 21
-1.17759365549199
 31
0
  0
LINE
  8
0
 10
0.1083293058810104
 20
-1.2140880674209
 30
0
 11
0.1103329206511098
 21
-1.205071800944217
 31
0
  0
LINE
  8
0
 10
0.1034633842890707
 20
-1.218381527647878
 30
0
 11
0.1083293058810104
 21
-1.2140880674209
 31
0
  0
LINE
  8
0
 10
0.1001717314500202
 20
-1.22067137310221
 30
0
 11
0.1034633842890707
 21
-1.218381527647878
 31
0
  0
LINE
  8
0
 10
0.09201415701599036
 20
-1.223051982443478
 30
0
 11
0.1001717314500202
 21
-1.22067137310221
 31
0
  0
LINE
  8
0
 10
0.06167370474602103
 20
-1.223051982443478
 30
0
 11
0.09201415701599036
 21
-1.223051982443478
 31
0
  0
LINE
  8
0
 10
0.06124435872303001
 20
-1.13265543845018
 30
0
 11
0.06167370474602103
 21
-1.223051982443478
 31
0
  0
LINE
  8
0
 10
0.1913329206511098
 20
-1.191332728217807
 30
0
 11
0.1428168200851505
 21
-1.191475843558557
 31
0
  0
LINE
  8
0
 10
0.1913329206511098
 20
-1.1777367708325
 30
0
 11
0.1913329206511098
 21
-1.191332728217807
 31
0
  0
LINE
  8
0
 10
0.1897586519011911
 20
-1.169292965719589
 30
0
 11
0.1913329206511098
 21
-1.1777367708325
 31
0
  0
LINE
  8
0
 10
0.1857514223552207
 20
-1.164999505492608
 30
0
 11
0.1897586519011911
 21
-1.169292965719589
 31
0
  0
LINE
  8
0
 10
0.1808855007661714
 20
-1.16185096799293
 30
0
 11
0.1857514223552207
 21
-1.164999505492608
 31
0
  0
LINE
  8
0
 10
0.1734435030391414
 20
-1.159909129859199
 30
0
 11
0.1808855007661714
 21
-1.16185096799293
 31
0
  0
LINE
  8
0
 10
0.1608493530392097
 20
-1.159909129859199
 30
0
 11
0.1734435030391414
 21
-1.159909129859199
 31
0
  0
LINE
  8
0
 10
0.1529780092892015
 20
-1.16185096799293
 30
0
 11
0.1608493530392097
 21
-1.159909129859199
 31
0
  0
LINE
  8
0
 10
0.14911389508516
 20
-1.164713274810718
 30
0
 11
0.1529780092892015
 21
-1.16185096799293
 31
0
  0
LINE
  8
0
 10
0.1452497808812004
 20
-1.168434273674167
 30
0
 11
0.14911389508516
 21
-1.164713274810718
 31
0
  0
LINE
  8
0
 10
0.1428168200851505
 20
-1.177879886173308
 30
0
 11
0.1452497808812004
 21
-1.168434273674167
 31
0
  0
LINE
  8
0
 10
0.1428168200851505
 20
-1.204499339580419
 30
0
 11
0.1428168200851505
 21
-1.177879886173308
 31
0
  0
LINE
  8
0
 10
0.1455360115651401
 20
-1.213658721397878
 30
0
 11
0.1428168200851505
 21
-1.204499339580419
 31
0
  0
LINE
  8
0
 10
0.1482552030421612
 20
-1.217952181624638
 30
0
 11
0.1455360115651401
 21
-1.213658721397878
 31
0
  0
LINE
  8
0
 10
0.1531211246311304
 20
-1.22067137310157
 30
0
 11
0.1482552030421612
 21
-1.217952181624638
 31
0
  0
LINE
  8
0
 10
0.1614218144041206
 20
-1.223051982443478
 30
0
 11
0.1531211246311304
 21
-1.22067137310157
 31
0
  0
LINE
  8
0
 10
0.1913329206511098
 20
-1.223051982443478
 30
0
 11
0.1614218144041206
 21
-1.223051982443478
 31
0
  0
LINE
  8
0
 10
0.2179132463970618
 20
-1.223051982443478
 30
0
 11
0.2179132463970618
 21
-1.159909129859199
 31
0
  0
LINE
  8
0
 10
0.2183329206511098
 20
-1.132845644687837
 30
0
 11
0.2183329206511098
 21
-1.137601952883379
 31
0
  0
LINE
  8
0
 10
0.3803329206511099
 20
-1.173820137779468
 30
0
 11
0.3803329206511099
 21
-1.223051982443478
 31
0
  0
LINE
  8
0
 10
0.3235355760579823
 20
-1.173820137779468
 30
0
 11
0.3235355760579823
 21
-1.13298426119527
 31
0
  0
LINE
  8
0
 10
0.3235355760579823
 20
-1.173820137779468
 30
0
 11
0.3235355760579823
 21
-1.13298426119527
 31
0
  0
LINE
  8
0
 10
0.3235355760579823
 20
-1.173820137779468
 30
0
 11
0.3803329206511099
 21
-1.173820137779468
 31
0
  0
LINE
  8
0
 10
0.3235355760579823
 20
-1.223051982443478
 30
0
 11
0.3235355760579823
 21
-1.173820137779468
 31
0
  0
LINE
  8
0
 10
0.3803329206511099
 20
-1.13298426119527
 30
0
 11
0.3803329206511099
 21
-1.173820137779468
 31
0
  0
LINE
  8
0
 10
0.3235355760579823
 20
-1.223051982443478
 30
0
 11
0.3235355760579823
 21
-1.173820137779468
 31
0
  0
LINE
  8
0
 10
0.4230738856921216
 20
-1.221007431552389
 30
0
 11
0.4306222898881915
 21
-1.223051982443478
 31
0
  0
LINE
  8
0
 10
0.4182139542241514
 20
-1.218629167217208
 30
0
 11
0.4230738856921216
 21
-1.221007431552389
 31
0
  0
LINE
  8
0
 10
0.4142846479322017
 20
-1.214079444141098
 30
0
 11
0.4182139542241514
 21
-1.218629167217208
 31
0
  0
LINE
  8
0
 10
0.4122165919891723
 20
-1.204876595191578
 30
0
 11
0.4142846479322017
 21
-1.214079444141098
 31
0
  0
LINE
  8
0
 10
0.4122165919891723
 20
-1.177578256734378
 30
0
 11
0.4122165919891723
 21
-1.204876595191578
 31
0
  0
LINE
  8
0
 10
0.4145948563231596
 20
-1.16899582456809
 30
0
 11
0.4122165919891723
 21
-1.177578256734378
 31
0
  0
LINE
  8
0
 10
0.4184207598211523
 20
-1.164652907086267
 30
0
 11
0.4145948563231596
 21
-1.16899582456809
 31
0
  0
LINE
  8
0
 10
0.42276367730116
 20
-1.162274642750788
 30
0
 11
0.4184207598211523
 21
-1.164652907086267
 31
0
  0
LINE
  8
0
 10
0.4302086787001299
 20
-1.159909129859199
 30
0
 11
0.42276367730116
 21
-1.162274642750788
 31
0
  0
LINE
  8
0
 10
0.442410208767169
 20
-1.159909129859199
 30
0
 11
0.4302086787001299
 21
-1.159909129859199
 31
0
  0
LINE
  8
0
 10
0.4502688213542115
 20
-1.162067837156497
 30
0
 11
0.442410208767169
 21
-1.159909129859199
 31
0
  0
LINE
  8
0
 10
0.4545083360371991
 20
-1.1641358931004
 30
0
 11
0.4502688213542115
 21
-1.162067837156497
 31
0
  0
LINE
  8
0
 10
0.4592648647081604
 20
-1.16920263016241
 30
0
 11
0.4545083360371991
 21
-1.1641358931004
 31
0
  0
LINE
  8
0
 10
0.4611261150571609
 20
-1.17778506232869
 30
0
 11
0.4592648647081604
 21
-1.16920263016241
 31
0
  0
LINE
  8
0
 10
0.4613329206511098
 20
-1.205083400785879
 30
0
 11
0.4611261150571609
 21
-1.17778506232869
 31
0
  0
LINE
  8
0
 10
0.4590580591141315
 20
-1.213769235749478
 30
0
 11
0.4613329206511098
 21
-1.205083400785879
 31
0
  0
LINE
  8
0
 10
0.4546117388341318
 20
-1.218112153231279
 30
0
 11
0.4590580591141315
 21
-1.213769235749478
 31
0
  0
LINE
  8
0
 10
0.4509926409331511
 20
-1.220697223160809
 30
0
 11
0.4546117388341318
 21
-1.218112153231279
 31
0
  0
LINE
  8
0
 10
0.4429272227521706
 20
-1.223051982443478
 30
0
 11
0.4509926409331511
 21
-1.220697223160809
 31
0
  0
LINE
  8
0
 10
0.4306222898881915
 20
-1.223051982443478
 30
0
 11
0.4429272227521706
 21
-1.223051982443478
 31
0
  0
LINE
  8
0
 10
0.5157328156471613
 20
-1.223051982443478
 30
0
 11
0.5170731826711108
 21
-1.223051982443478
 31
0
  0
LINE
  8
0
 10
0.5120130929340795
 20
-1.22079274971427
 30
0
 11
0.5157328156471613
 21
-1.223051982443478
 31
0
  0
LINE
  8
0
 10
0.5090904536581493
 20
-1.208836498136479
 30
0
 11
0.5120130929340795
 21
-1.22079274971427
 31
0
  0
LINE
  8
0
 10
0.5093561481391207
 20
-1.133113571477188
 30
0
 11
0.5090904536581493
 21
-1.208836498136479
 31
0
  0
LINE
  8
0
 10
0.5746354945770998
 20
-1.223051982443478
 30
0
 11
0.6233329206511097
 21
-1.223051982443478
 31
0
  0
LINE
  8
0
 10
0.6228092924131615
 20
-1.159909129859199
 30
0
 11
0.5746354945770998
 21
-1.223051982443478
 31
0
  0
LINE
  8
0
 10
0.574530768930139
 20
-1.159909129859199
 30
0
 11
0.6228092924131615
 21
-1.159909129859199
 31
0
  0
LINE
  8
0
 10
0.6994933466551102
 20
-1.1666529789985
 30
0
 11
0.7037951902081423
 21
-1.173509042159778
 31
0
  0
LINE
  8
0
 10
0.6934438791601406
 20
-1.162082270224029
 30
0
 11
0.6994933466551102
 21
-1.1666529789985
 31
0
  0
LINE
  8
0
 10
0.683899163778131
 20
-1.159909129859199
 30
0
 11
0.6934438791601406
 21
-1.162082270224029
 31
0
  0
LINE
  8
0
 10
0.6762365049511009
 20
-1.159909129859199
 30
0
 11
0.683899163778131
 21
-1.159909129859199
 31
0
  0
LINE
  8
0
 10
0.6670950874021601
 20
-1.162082270224029
 30
0
 11
0.6762365049511009
 21
-1.159909129859199
 31
0
  0
LINE
  8
0
 10
0.6619866481831506
 20
-1.166384113776377
 30
0
 11
0.6670950874021601
 21
-1.162082270224029
 31
0
  0
LINE
  8
0
 10
0.6575503720201504
 20
-1.170685957328809
 30
0
 11
0.6619866481831506
 21
-1.166384113776377
 31
0
  0
LINE
  8
0
 10
0.6551305850221124
 20
-1.175256666102978
 30
0
 11
0.6575503720201504
 21
-1.170685957328809
 31
0
  0
LINE
  8
0
 10
0.6548617197990916
 20
-1.180230672710539
 30
0
 11
0.6551305850221124
 21
-1.175256666102978
 31
0
  0
LINE
  8
0
 10
0.6570126415771793
 20
-1.18493581409593
 30
0
 11
0.6548617197990916
 21
-1.180230672710539
 31
0
  0
LINE
  8
0
 10
0.6610456199070995
 20
-1.186817870649968
 30
0
 11
0.6570126415771793
 21
-1.18493581409593
 31
0
  0
LINE
  8
0
 10
0.6972079922671419
 20
-1.1964970186426
 30
0
 11
0.6610456199070995
 21
-1.186817870649968
 31
0
  0
LINE
  8
0
 10
0.7013754032101807
 20
-1.197975777363688
 30
0
 11
0.6972079922671419
 21
-1.1964970186426
 31
0
  0
LINE
  8
0
 10
0.7043329206511099
 20
-1.203084216582109
 30
0
 11
0.7013754032101807
 21
-1.197975777363688
 31
0
  0
LINE
  8
0
 10
0.7036607575951004
 20
-1.207386060134479
 30
0
 11
0.7043329206511099
 21
-1.203084216582109
 31
0
  0
LINE
  8
0
 10
0.7020475662631307
 20
-1.211822336297839
 30
0
 11
0.7036607575951004
 21
-1.207386060134479
 31
0
  0
LINE
  8
0
 10
0.6985523183791501
 20
-1.215989747239288
 30
0
 11
0.7020475662631307
 21
-1.211822336297839
 31
0
  0
LINE
  8
0
 10
0.6922339856611598
 20
-1.220963753846529
 30
0
 11
0.6985523183791501
 21
-1.215989747239288
 31
0
  0
LINE
  8
0
 10
0.6844368942211823
 20
-1.223051982443478
 30
0
 11
0.6922339856611598
 21
-1.220963753846529
 31
0
  0
LINE
  8
0
 10
0.6751610440621789
 20
-1.223051982443478
 30
0
 11
0.6844368942211823
 21
-1.223051982443478
 31
0
  0
LINE
  8
0
 10
0.6656163286801693
 20
-1.221098186457708
 30
0
 11
0.6751610440621789
 21
-1.223051982443478
 31
0
  0
LINE
  8
0
 10
0.6595668611851124
 20
-1.216661910294399
 30
0
 11
0.6656163286801693
 21
-1.221098186457708
 31
0
  0
LINE
  8
0
 10
0.6551305850221124
 20
-1.209671414521628
 30
0
 11
0.6595668611851124
 21
-1.216661910294399
 31
0
  0
LINE
  8
0
 10
0.7323306878280801
 20
-1.223051982443478
 30
0
 11
0.7323306878280801
 21
-1.13277596102349
 31
0
  0
LINE
  8
0
 10
0.7248024616110326
 20
-1.159909129859199
 30
0
 11
0.7448329206511098
 21
-1.159909129859199
 31
0
  0
LINE
  8
0
 10
0.7949893019730898
 20
-1.223051982443478
 30
0
 11
0.8258329206511098
 21
-1.223051982443478
 31
0
  0
LINE
  8
0
 10
0.7877570051821402
 20
-1.22054418018911
 30
0
 11
0.7949893019730898
 21
-1.223051982443478
 31
0
  0
LINE
  8
0
 10
0.7826518545031305
 20
-1.218842463296489
 30
0
 11
0.7877570051821402
 21
-1.22054418018911
 31
0
  0
LINE
  8
0
 10
0.7794611353321108
 20
-1.214588171065618
 30
0
 11
0.7826518545031305
 21
-1.218842463296489
 31
0
  0
LINE
  8
0
 10
0.7769085599911216
 20
-1.205441442768679
 30
0
 11
0.7794611353321108
 21
-1.214588171065618
 31
0
  0
LINE
  8
0
 10
0.7769085599911216
 20
-1.159909129859199
 30
0
 11
0.7769085599911216
 21
-1.205441442768679
 31
0
  0
LINE
  8
0
 10
0.8258329206511098
 20
-1.159909129859199
 30
0
 11
0.8258329206511098
 21
-1.223051982443478
 31
0
  0
LINE
  8
0
 10
0.841860197358079
 20
-1.164427044129079
 30
0
 11
0.8659035746281316
 21
-1.164427044129079
 31
0
  0
LINE
  8
0
 10
0.8500177717891511
 20
-1.148398125948428
 30
0
 11
0.8501608871311602
 21
-1.223051982443478
 31
0
  0
LINE
  8
0
 10
0.8523076172431011
 20
-1.139954320835539
 30
0
 11
0.8500177717891511
 21
-1.148398125948428
 31
0
  0
LINE
  8
0
 10
0.8564579621311695
 20
-1.134802168563379
 30
0
 11
0.8523076172431011
 21
-1.139954320835539
 31
0
  0
LINE
  8
0
 10
0.8614669990621424
 20
-1.13308478447259
 30
0
 11
0.8564579621311695
 21
-1.134802168563379
 31
0
  0
LINE
  8
0
 10
0.8663329206511097
 20
-1.133227899813399
 30
0
 11
0.8614669990621424
 21
-1.13308478447259
 31
0
  0
LINE
  8
0
 10
0.9473329206511099
 20
-1.191332728217807
 30
0
 11
0.8988168200851524
 21
-1.191475843558557
 31
0
  0
LINE
  8
0
 10
0.9473329206511099
 20
-1.1777367708325
 30
0
 11
0.9473329206511099
 21
-1.191332728217807
 31
0
  0
LINE
  8
0
 10
0.9457586519011912
 20
-1.169292965719589
 30
0
 11
0.9473329206511099
 21
-1.1777367708325
 31
0
  0
LINE
  8
0
 10
0.9417514223552189
 20
-1.164999505492608
 30
0
 11
0.9457586519011912
 21
-1.169292965719589
 31
0
  0
LINE
  8
0
 10
0.9368855007661715
 20
-1.16185096799293
 30
0
 11
0.9417514223552189
 21
-1.164999505492608
 31
0
  0
LINE
  8
0
 10
0.9294435030391415
 20
-1.159909129859199
 30
0
 11
0.9368855007661715
 21
-1.16185096799293
 31
0
  0
LINE
  8
0
 10
0.9168493530392098
 20
-1.159909129859199
 30
0
 11
0.9294435030391415
 21
-1.159909129859199
 31
0
  0
LINE
  8
0
 10
0.9089780092892015
 20
-1.16185096799293
 30
0
 11
0.9168493530392098
 21
-1.159909129859199
 31
0
  0
LINE
  8
0
 10
0.9051138950851617
 20
-1.164713274810718
 30
0
 11
0.9089780092892015
 21
-1.16185096799293
 31
0
  0
LINE
  8
0
 10
0.9012497808812022
 20
-1.168434273674167
 30
0
 11
0.9051138950851617
 21
-1.164713274810718
 31
0
  0
LINE
  8
0
 10
0.8988168200851524
 20
-1.177879886173308
 30
0
 11
0.9012497808812022
 21
-1.168434273674167
 31
0
  0
LINE
  8
0
 10
0.8988168200851524
 20
-1.204499339580419
 30
0
 11
0.8988168200851524
 21
-1.177879886173308
 31
0
  0
LINE
  8
0
 10
0.9015360115651403
 20
-1.213658721397878
 30
0
 11
0.8988168200851524
 21
-1.204499339580419
 31
0
  0
LINE
  8
0
 10
0.9042552030421592
 20
-1.217952181624638
 30
0
 11
0.9015360115651403
 21
-1.213658721397878
 31
0
  0
LINE
  8
0
 10
0.9091211246311305
 20
-1.22067137310157
 30
0
 11
0.9042552030421592
 21
-1.217952181624638
 31
0
  0
LINE
  8
0
 10
0.9174218144041205
 20
-1.223051982443478
 30
0
 11
0.9091211246311305
 21
-1.22067137310157
 31
0
  0
LINE
  8
0
 10
0.9473329206511099
 20
-1.223051982443478
 30
0
 11
0.9174218144041205
 21
-1.223051982443478
 31
0
  0
LINE
  8
0
 10
1.027926981474111
 20
-1.171617997940808
 30
0
 11
1.02833292065111
 21
-1.223051982443478
 31
0
  0
LINE
  8
0
 10
1.02528837683414
 20
-1.166949697422981
 30
0
 11
1.027926981474111
 21
-1.171617997940808
 31
0
  0
LINE
  8
0
 10
1.02183789384314
 20
-1.163093275255898
 30
0
 11
1.02528837683414
 21
-1.166949697422981
 31
0
  0
LINE
  8
0
 10
1.015342867035082
 20
-1.159909129859199
 30
0
 11
1.02183789384314
 21
-1.163093275255898
 31
0
  0
LINE
  8
0
 10
0.9794172500071092
 20
-1.159909129859199
 30
0
 11
1.015342867035082
 21
-1.159909129859199
 31
0
  0
LINE
  8
0
 10
0.9788083412431425
 20
-1.223051982443478
 30
0
 11
0.9794172500071092
 21
-1.159909129859199
 31
0
  0
LINE
  8
0
 10
0.5611717646722009
 20
-0.4636426224555798
 30
0
 11
0.5159206574421024
 21
-0.4262559552246675
 31
0
  0
LINE
  8
0
 10
0.4608269235204007
 20
-0.380737265788739
 30
0
 11
0.4086107996193006
 21
-0.4439372672009084
 31
0
  0
LINE
  8
0
 10
0.5611717646722009
 20
-0.4636426224555798
 30
0
 11
0.5089556407710897
 21
-0.5268426238677275
 31
0
  0
LINE
  8
0
 10
0.5159206574421024
 20
-0.4262559552246675
 30
0
 11
0.47081587709224
 21
-0.4805555320940002
 31
0
  0
LINE
  8
0
 10
0.5159206574421024
 20
-0.4262559552246675
 30
0
 11
0.4608269235204007
 21
-0.380737265788739
 31
0
  0
LINE
  8
0
 10
0.553752908417222
 20
-0.225122267714698
 30
0
 11
0.6134592415282004
 21
-0.2493952329714775
 31
0
  0
LINE
  8
0
 10
0.6134592415282004
 20
-0.2493952329714775
 30
0
 11
0.5920681481706506
 21
-0.3020127740136086
 31
0
  0
LINE
  8
0
 10
0.6134592415282004
 20
-0.2493952329714775
 30
0
 11
0.6743323381259017
 21
-0.2741425333297484
 31
0
  0
LINE
  8
0
 10
0.6743323381259017
 20
-0.2741425333297484
 30
0
 11
0.6534597124338815
 21
-0.3254847541621275
 31
0
  0
LINE
  8
0
 10
0.6534597124338815
 20
-0.3254847541621275
 30
0
 11
0.6463860890220221
 21
-0.3350922691187079
 31
0
  0
LINE
  8
0
 10
0.6463860890220221
 20
-0.3350922691187079
 30
0
 11
0.6358700862286514
 21
-0.3412197851949386
 31
0
  0
LINE
  8
0
 10
0.6358700862286514
 20
-0.3412197851949386
 30
0
 11
0.618898807596981
 21
-0.3405619051561189
 31
0
  0
LINE
  8
0
 10
0.618898807596981
 20
-0.3405619051561189
 30
0
 11
0.6073649091494319
 21
-0.3367645818249403
 31
0
  0
LINE
  8
0
 10
0.6073649091494319
 20
-0.3367645818249403
 30
0
 11
0.5998893771430721
 21
-0.3295644115778705
 31
0
  0
LINE
  8
0
 10
0.5998893771430721
 20
-0.3295644115778705
 30
0
 11
0.5927642631303006
 21
-0.323695578098057
 31
0
  0
LINE
  8
0
 10
0.5927642631303006
 20
-0.323695578098057
 30
0
 11
0.5927189466683322
 21
-0.313571691206278
 31
0
  0
LINE
  8
0
 10
0.5927189466683322
 20
-0.313571691206278
 30
0
 11
0.5920681481706506
 21
-0.3020127740136086
 31
0
  0
LINE
  8
0
 10
0.5957683196150412
 20
-0.04881012543144971
 30
0
 11
0.6600048070577123
 21
-0.05407289437383952
 31
0
  0
LINE
  8
0
 10
0.6600048070577123
 20
-0.05407289437383952
 30
0
 11
0.6553668742557003
 21
-0.1106827352116488
 31
0
  0
LINE
  8
0
 10
0.6600048070577123
 20
-0.05407289437383952
 30
0
 11
0.7254965849220116
 21
-0.05943850678902891
 31
0
  0
LINE
  8
0
 10
0.7254965849220116
 20
-0.05943850678902891
 30
0
 11
0.7209710642418413
 21
-0.1146762638565488
 31
0
  0
LINE
  8
0
 10
0.7209710642418413
 20
-0.1146762638565488
 30
0
 11
0.717102044487632
 21
-0.1259621478696172
 31
0
  0
LINE
  8
0
 10
0.717102044487632
 20
-0.1259621478696172
 30
0
 11
0.7089059072740911
 21
-0.1349597088052469
 31
0
  0
LINE
  8
0
 10
0.7089059072740911
 20
-0.1349597088052469
 30
0
 11
0.6925176046247816
 21
-0.1394184800277471
 31
0
  0
LINE
  8
0
 10
0.6925176046247816
 20
-0.1394184800277471
 30
0
 11
0.68037582017145
 21
-0.1392525036177503
 31
0
  0
LINE
  8
0
 10
0.68037582017145
 20
-0.1392525036177503
 30
0
 11
0.6710859877194215
 21
-0.1346237842075498
 31
0
  0
LINE
  8
0
 10
0.6710859877194215
 20
-0.1346237842075498
 30
0
 11
0.6625294758322398
 21
-0.1311601790867171
 31
0
  0
LINE
  8
0
 10
0.6625294758322398
 20
-0.1311601790867171
 30
0
 11
0.6594520437035408
 21
-0.1215152555062486
 31
0
  0
LINE
  8
0
 10
0.6594520437035408
 20
-0.1215152555062486
 30
0
 11
0.6553668742557003
 21
-0.1106827352116488
 31
0
  0
LINE
  8
0
 10
0.7099605999114301
 20
0.1607301384191414
 30
0
 11
0.6527116339829498
 21
0.1477693709917912
 31
0
  0
LINE
  8
0
 10
0.5830103716444009
 20
0.1319894903264831
 30
0
 11
0.6011120396443712
 21
0.05203266829503263
 31
0
  0
LINE
  8
0
 10
0.7099605999114301
 20
0.1607301384191414
 30
0
 11
0.7280622679114223
 21
0.08077331638768011
 31
0
  0
LINE
  8
0
 10
0.6527116339829498
 20
0.1477693709917912
 30
0
 11
0.6681159916802116
 21
0.07888112074160017
 31
0
  0
LINE
  8
0
 10
0.6527116339829498
 20
0.1477693709917912
 30
0
 11
0.5830103716444009
 21
0.1319894903264831
 31
0
  0
LINE
  8
0
 10
0.5166519964041818
 20
0.3006543424152114
 30
0
 11
0.5723580626493803
 21
0.3330712706997219
 31
0
  0
LINE
  8
0
 10
0.6291527203503919
 20
0.3661216810003498
 30
0
 11
0.6573634249019906
 21
0.3176436955853715
 31
0
  0
LINE
  8
0
 10
0.6573634249019906
 20
0.3176436955853715
 30
0
 11
0.6594535341663305
 21
0.3054803455729198
 31
0
  0
LINE
  8
0
 10
0.6594535341663305
 20
0.3054803455729198
 30
0
 11
0.6581951366989105
 21
0.2961468493049906
 31
0
  0
LINE
  8
0
 10
0.6581951366989105
 20
0.2961468493049906
 30
0
 11
0.6482701487066899
 21
0.2814514570744723
 31
0
  0
LINE
  8
0
 10
0.6482701487066899
 20
0.2814514570744723
 30
0
 11
0.6357959582363819
 21
0.2738738115047527
 31
0
  0
LINE
  8
0
 10
0.6357959582363819
 20
0.2738738115047527
 30
0
 11
0.6263414680844016
 21
0.2731504215910318
 31
0
  0
LINE
  8
0
 10
0.6263414680844016
 20
0.2731504215910318
 30
0
 11
0.6180553496777921
 21
0.2715141253945403
 31
0
  0
LINE
  8
0
 10
0.6180553496777921
 20
0.2715141253945403
 30
0
 11
0.60848789118455
 21
0.2764591289239615
 31
0
  0
LINE
  8
0
 10
0.60848789118455
 20
0.2764591289239615
 30
0
 11
0.6004517860881515
 21
0.2864365883159116
 31
0
  0
LINE
  8
0
 10
0.6004517860881515
 20
0.2864365883159116
 30
0
 11
0.5964697219234094
 21
0.2930466874706399
 31
0
  0
LINE
  8
0
 10
0.5723580626493803
 20
0.3330712706997219
 30
0
 11
0.6291527203503919
 21
0.3661216810003498
 31
0
  0
LINE
  8
0
 10
0.5964697219234094
 20
0.2930466874706399
 30
0
 11
0.5580187142469314
 21
0.2295687323207203
 31
0
  0
LINE
  8
0
 10
0.5964697219234094
 20
0.2930466874706399
 30
0
 11
0.5723580626493803
 21
0.3330712706997219
 31
0
  0
LINE
  8
0
 10
0.4596379150871417
 20
0.5660000724057318
 30
0
 11
0.4905022083616696
 21
0.5378529672830409
 31
0
  0
LINE
  8
0
 10
0.4027940069139095
 20
0.4416778316780328
 30
0
 11
0.4905022083616696
 21
0.5378529672830409
 31
0
  0
LINE
  8
0
 10
0.4905022083616696
 20
0.5378529672830409
 30
0
 11
0.5207769231528019
 21
0.5102435361450626
 31
0
  0
LINE
  8
0
 10
-0.3957547646651092
 20
0.6109471311559902
 30
0
 11
-0.3606960170551702
 21
0.6336572245540302
 31
0
  0
LINE
  8
0
 10
-0.2899298960643991
 20
0.5244118977442923
 30
0
 11
-0.3606960170551702
 21
0.6336572245540302
 31
0
  0
LINE
  8
0
 10
-0.3606960170551702
 20
0.6336572245540302
 30
0
 11
-0.3263069715849398
 21
0.6559335033072603
 31
0
  0
LINE
  8
0
 10
-0.5268994660910102
 20
0.4980900444740109
 30
0
 11
-0.4982798980519402
 21
0.5285167506937724
 31
0
  0
LINE
  8
0
 10
-0.4034683120335085
 20
0.4393363242173727
 30
0
 11
-0.4982798980519402
 21
0.5285167506937724
 31
0
  0
LINE
  8
0
 10
-0.4982798980519402
 20
0.5285167506937724
 30
0
 11
-0.4702070291181899
 21
0.5583622373421022
 31
0
  0
LINE
  8
0
 10
-0.5247328388799488
 20
0.2864701321059001
 30
0
 11
-0.5161436931429288
 21
0.3031066005347602
 31
0
  0
LINE
  8
0
 10
-0.5161436931429288
 20
0.3031066005347602
 30
0
 11
-0.5150341616419302
 21
0.31430868648658
 31
0
  0
LINE
  8
0
 10
-0.5150341616419302
 20
0.31430868648658
 30
0
 11
-0.5161458795757898
 21
0.3235589053836229
 31
0
  0
LINE
  8
0
 10
-0.5161458795757898
 20
0.3235589053836229
 30
0
 11
-0.52070665673242
 21
0.3327306212301701
 31
0
  0
LINE
  8
0
 10
-0.52070665673242
 20
0.3327306212301701
 30
0
 11
-0.5254017128420692
 21
0.3410420642671306
 31
0
  0
LINE
  8
0
 10
-0.5254017128420692
 20
0.3410420642671306
 30
0
 11
-0.5351400628254087
 21
0.3497882161061716
 31
0
  0
LINE
  8
0
 10
-0.5351400628254087
 20
0.3497882161061716
 30
0
 11
-0.5826029286373087
 21
0.3742925436500809
 31
0
  0
LINE
  8
0
 10
-0.5826029286373087
 20
0.3742925436500809
 30
0
 11
-0.5962409826170497
 21
0.3766856608400412
 31
0
  0
LINE
  8
0
 10
-0.5962409826170497
 20
0.3766856608400412
 30
0
 11
-0.6141258015499589
 21
0.3744542569860896
 31
0
  0
LINE
  8
0
 10
-0.6141258015499589
 20
0.3744542569860896
 30
0
 11
-0.6239290722300193
 21
0.3686702100921611
 31
0
  0
LINE
  8
0
 10
-0.6239290722300193
 20
0.3686702100921611
 30
0
 11
-0.6318018362190997
 21
0.3628190720128114
 31
0
  0
LINE
  8
0
 10
-0.6318018362190997
 20
0.3628190720128114
 30
0
 11
-0.6397594271226299
 21
0.3474058733211423
 31
0
  0
LINE
  8
0
 10
-0.6397594271226299
 20
0.3474058733211423
 30
0
 11
-0.6408388057984703
 21
0.3371178188526102
 31
0
  0
LINE
  8
0
 10
-0.6408388057984703
 20
0.3371178188526102
 30
0
 11
-0.6377937602422098
 21
0.3250102556369202
 31
0
  0
LINE
  8
0
 10
-0.6377937602422098
 20
0.3250102556369202
 30
0
 11
-0.6341956629037286
 21
0.3175750213806023
 31
0
  0
LINE
  8
0
 10
-0.6341956629037286
 20
0.3175750213806023
 30
0
 11
-0.6303608796036096
 21
0.3093978572966516
 31
0
  0
LINE
  8
0
 10
-0.6303608796036096
 20
0.3093978572966516
 30
0
 11
-0.6205065794324
 21
0.3008762914290928
 31
0
  0
LINE
  8
0
 10
-0.6205065794324
 20
0.3008762914290928
 30
0
 11
-0.57353302151563
 21
0.2766245858186812
 31
0
  0
LINE
  8
0
 10
-0.57353302151563
 20
0.2766245858186812
 30
0
 11
-0.5601451966757796
 21
0.2731466098476812
 31
0
  0
LINE
  8
0
 10
-0.5601451966757796
 20
0.2731466098476812
 30
0
 11
-0.5448651001284397
 21
0.2739339939745623
 31
0
  0
LINE
  8
0
 10
-0.5448651001284397
 20
0.2739339939745623
 30
0
 11
-0.532094110135329
 21
0.2806647847146305
 31
0
  0
LINE
  8
0
 10
-0.532094110135329
 20
0.2806647847146305
 30
0
 11
-0.5247328388799488
 21
0.2864701321059001
 31
0
  0
LINE
  8
0
 10
-0.7071084335730302
 20
0.1877017210902522
 30
0
 11
-0.7144521519830596
 21
0.1376685848546804
 31
0
  0
LINE
  8
0
 10
-0.5857232591060693
 20
0.1183969287219625
 30
0
 11
-0.5784337378798391
 21
0.1680608167199825
 31
0
  0
LINE
  8
0
 10
-0.5784337378798391
 20
0.1680608167199825
 30
0
 11
-0.6490013277788603
 21
0.1784185225942128
 31
0
  0
LINE
  8
0
 10
-0.6490013277788603
 20
0.1784185225942128
 30
0
 11
-0.6532016095263097
 21
0.1498017841566325
 31
0
  0
LINE
  8
0
 10
-0.7144521519830596
 20
0.1376685848546804
 30
0
 11
-0.7128805547838201
 21
0.1261218160888129
 31
0
  0
LINE
  8
0
 10
-0.7128805547838201
 20
0.1261218160888129
 30
0
 11
-0.7018097027567292
 21
0.1090315397169215
 31
0
  0
LINE
  8
0
 10
-0.7018097027567292
 20
0.1090315397169215
 30
0
 11
-0.6808621032302798
 21
0.1001242513246725
 31
0
  0
LINE
  8
0
 10
-0.6808621032302798
 20
0.1001242513246725
 30
0
 11
-0.6282442293291388
 21
0.09240115262770997
 31
0
  0
LINE
  8
0
 10
-0.6282442293291388
 20
0.09240115262770997
 30
0
 11
-0.6053817154804201
 21
0.09525532297312021
 31
0
  0
LINE
  8
0
 10
-0.6053817154804201
 20
0.09525532297312021
 30
0
 11
-0.5977105667297893
 21
0.09997602275949975
 31
0
  0
LINE
  8
0
 10
-0.5977105667297893
 20
0.09997602275949975
 30
0
 11
-0.5857232591060693
 21
0.1183969287219625
 31
0
  0
LINE
  8
0
 10
-0.6032185230798496
 20
-0.01327434346670998
 30
0
 11
-0.7188196585480801
 21
-0.114789064408269
 31
0
  0
LINE
  8
0
 10
-0.73175286674191
 20
-0.03380012747642832
 30
0
 11
-0.6032185230798496
 21
-0.01327434346670998
 31
0
  0
LINE
  8
0
 10
-0.5902853148859886
 20
-0.09426328039855798
 30
0
 11
-0.7188196585480801
 21
-0.114789064408269
 31
0
  0
LINE
  8
0
 10
-0.5715109551292898
 20
-0.1934528959419004
 30
0
 11
-0.6513733969025289
 21
-0.3249475782807386
 31
0
  0
LINE
  8
0
 10
-0.68798502627378
 20
-0.2515577671737883
 30
0
 11
-0.5715109551292898
 21
-0.1934528959419004
 31
0
  0
LINE
  8
0
 10
-0.5348993257580387
 20
-0.2668427070488578
 30
0
 11
-0.6513733969025289
 21
-0.3249475782807386
 31
0
  0
LINE
  8
0
 10
-0.5240415927622598
 20
-0.505231273653968
 30
0
 11
-0.4817845445642197
 21
-0.4644910297939387
 31
0
  0
LINE
  8
0
 10
-0.4303361113159499
 20
-0.4148893229513378
 30
0
 11
-0.4872360111657799
 21
-0.3558709768983281
 31
0
  0
LINE
  8
0
 10
-0.5240415927622598
 20
-0.505231273653968
 30
0
 11
-0.5809414926120499
 21
-0.4462129276009874
 31
0
  0
LINE
  8
0
 10
-0.4817845445642197
 20
-0.4644910297939387
 30
0
 11
-0.5306439092320688
 21
-0.4135435299254386
 31
0
  0
LINE
  8
0
 10
-0.4817845445642197
 20
-0.4644910297939387
 30
0
 11
-0.4303361113159499
 21
-0.4148893229513378
 31
0
  0
LINE
  8
0
 10
-0.3481537719510397
 20
-0.6392708204658775
 30
0
 11
-0.3043433619554689
 21
-0.5588272952216576
 31
0
  0
LINE
  8
0
 10
-0.3043433619554689
 20
-0.5588272952216576
 30
0
 11
-0.3378566168139296
 21
-0.5707481412753695
 31
0
  0
LINE
  8
0
 10
-0.3043433619554689
 20
-0.5588272952216576
 30
0
 11
-0.28589933018802
 21
-0.524960848063558
 31
0
  0
LINE
  8
0
 10
-0.3378566168139296
 20
-0.5707481412753695
 30
0
 11
-0.3579406053110197
 21
-0.4857263939523002
 31
0
  0
LINE
  8
0
 10
-0.3378566168139296
 20
-0.5707481412753695
 30
0
 11
-0.4201950470740285
 21
-0.6000363663546086
 31
0
  0
LINE
  8
0
 10
-0.05586296763905921
 20
-1.098438665847978
 30
0
 11
-0.1067105398616186
 21
-1.098438665847978
 31
0
  0
LINE
  8
0
 10
-0.04584408386560971
 20
-1.094372692770488
 30
0
 11
-0.05586296763905921
 21
-1.098438665847978
 31
0
  0
LINE
  8
0
 10
-0.03605819738958962
 20
-1.087149776561459
 30
0
 11
-0.04584408386560971
 21
-1.094372692770488
 31
0
  0
LINE
  8
0
 10
-0.02976727036856028
 20
-1.07456792252048
 30
0
 11
-0.03605819738958962
 21
-1.087149776561459
 31
0
  0
LINE
  8
0
 10
-0.02534032172459956
 20
-1.061520073884938
 30
0
 11
-0.02976727036856028
 21
-1.07456792252048
 31
0
  0
LINE
  8
0
 10
-0.02534032172459956
 20
-1.041715303635468
 30
0
 11
-0.02534032172459956
 21
-1.061520073884938
 31
0
  0
LINE
  8
0
 10
-0.02836928658661964
 20
-1.028201460405919
 30
0
 11
-0.02534032172459956
 21
-1.041715303635468
 31
0
  0
LINE
  8
0
 10
-0.03233024063660014
 20
-1.019813557711939
 30
0
 11
-0.02836928658661964
 21
-1.028201460405919
 31
0
  0
LINE
  8
0
 10
-0.03978615414214983
 20
-1.011891649611978
 30
0
 11
-0.03233024063660014
 21
-1.019813557711939
 31
0
  0
LINE
  8
0
 10
-0.0514360189950985
 20
-1.007930695561958
 30
0
 11
-0.03978615414214983
 21
-1.011891649611978
 31
0
  0
LINE
  8
0
 10
-0.0514360189950985
 20
-1.007930695561958
 30
0
 11
-0.08661861085109013
 21
-1.008629687452969
 31
0
  0
LINE
  8
0
 10
-0.03582520009216934
 20
-1.00163976854147
 30
0
 11
-0.0514360189950985
 21
-1.007930695561958
 31
0
  0
LINE
  8
0
 10
-0.02883528118059985
 20
-0.9930188685499599
 30
0
 11
-0.03582520009216934
 21
-1.00163976854147
 31
0
  0
LINE
  8
0
 10
-0.02534032172459956
 20
-0.9825339901824591
 30
0
 11
-0.02883528118059985
 21
-0.9930188685499599
 31
0
  0
LINE
  8
0
 10
-0.02510732442760855
 20
-0.969719138844488
 30
0
 11
-0.02534032172459956
 21
-0.9825339901824591
 31
0
  0
LINE
  8
0
 10
-0.02930127577458006
 20
-0.9597002550709695
 30
0
 11
-0.02510732442760855
 21
-0.969719138844488
 31
0
  0
LINE
  8
0
 10
-0.03955315684515881
 20
-0.9529433334564673
 30
0
 11
-0.02930127577458006
 21
-0.9597002550709695
 31
0
  0
LINE
  8
0
 10
-0.05586296763905921
 20
-0.948325797100959
 30
0
 11
-0.03955315684515881
 21
-0.9529433334564673
 31
0
  0
LINE
  8
0
 10
-0.1067105398616186
 20
-0.948325797100959
 30
0
 11
-0.05586296763905921
 21
-0.948325797100959
 31
0
  0
LINE
  8
0
 10
-0.202029757359649
 20
-1.023290915382939
 30
0
 11
-0.2559114562425602
 21
-1.024108500517908
 31
0
  0
LINE
  8
0
 10
-0.202029757359649
 20
-1.023290915382939
 30
0
 11
-0.16105993454907
 21
-1.098438665847978
 31
0
  0
LINE
  8
0
 10
-0.2559114562425602
 20
-1.024108500517908
 30
0
 11
-0.2559114562425602
 21
-0.948325797100959
 31
0
  0
LINE
  8
0
 10
-0.1931311419711892
 20
-1.023155890396487
 30
0
 11
-0.202029757359649
 21
-1.023290915382939
 31
0
  0
LINE
  8
0
 10
-0.178524453442169
 20
-1.020933133446459
 30
0
 11
-0.1931311419711892
 21
-1.023155890396487
 31
0
  0
LINE
  8
0
 10
-0.1680457421065694
 20
-1.014264862596468
 30
0
 11
-0.178524453442169
 21
-1.020933133446459
 31
0
  0
LINE
  8
0
 10
-0.1648703750351888
 20
-1.005056298088937
 30
0
 11
-0.1680457421065694
 21
-1.014264862596468
 31
0
  0
LINE
  8
0
 10
-0.1601073244276085
 20
-0.9952126601674572
 30
0
 11
-0.1648703750351888
 21
-1.005056298088937
 31
0
  0
LINE
  8
0
 10
-0.1604248611351995
 20
-0.9783832146889873
 30
0
 11
-0.1601073244276085
 21
-0.9952126601674572
 31
0
  0
LINE
  8
0
 10
-0.1693158889351798
 20
-0.9599660856744704
 30
0
 11
-0.1604248611351995
 21
-0.9783832146889873
 31
0
  0
LINE
  8
0
 10
-0.1778893800281585
 20
-0.9532978148244474
 30
0
 11
-0.1693158889351798
 21
-0.9599660856744704
 31
0
  0
LINE
  8
0
 10
-0.1912259217281298
 20
-0.948325797100959
 30
0
 11
-0.1778893800281585
 21
-0.9532978148244474
 31
0
  0
LINE
  8
0
 10
-0.2559114562425602
 20
-0.948325797100959
 30
0
 11
-0.1912259217281298
 21
-0.948325797100959
 31
0
  0
LINE
  8
0
 10
-0.2559114562425602
 20
-1.098438665847978
 30
0
 11
-0.2559114562425602
 21
-1.024108500517908
 31
0
  0
LINE
  8
0
 10
-0.3762443921485992
 20
-1.098438665847978
 30
0
 11
-0.2955733190215888
 21
-1.098438665847978
 31
0
  0
LINE
  8
0
 10
-0.302330240636169
 20
-1.00163976854147
 30
0
 11
-0.3762443921485992
 21
-1.098438665847978
 31
0
  0
LINE
  8
0
 10
-0.2951073244276085
 20
-0.9855629550444901
 30
0
 11
-0.302330240636169
 21
-1.00163976854147
 31
0
  0
LINE
  8
0
 10
-0.2951073244276085
 20
-0.9715831172209873
 30
0
 11
-0.2951073244276085
 21
-0.9855629550444901
 31
0
  0
LINE
  8
0
 10
-0.3020972433391798
 20
-0.9599332523679587
 30
0
 11
-0.2951073244276085
 21
-0.9715831172209873
 31
0
  0
LINE
  8
0
 10
-0.3118831298156292
 20
-0.9522443415654598
 30
0
 11
-0.3020972433391798
 21
-0.9599332523679587
 31
0
  0
LINE
  8
0
 10
-0.3256299703422192
 20
-0.948325797100959
 30
0
 11
-0.3118831298156292
 21
-0.9522443415654598
 31
0
  0
LINE
  8
0
 10
-0.3459007351861002
 20
-0.948325797100959
 30
0
 11
-0.3256299703422192
 21
-0.948325797100959
 31
0
  0
LINE
  8
0
 10
-0.3601135703066593
 20
-0.9527103361594783
 30
0
 11
-0.3459007351861002
 21
-0.948325797100959
 31
0
  0
LINE
  8
0
 10
-0.3685014730005987
 20
-0.960166249665457
 30
0
 11
-0.3601135703066593
 21
-0.9527103361594783
 31
0
  0
LINE
  8
0
 10
-0.3762443921485992
 20
-0.9718161145179803
 30
0
 11
-0.3685014730005987
 21
-0.960166249665457
 31
0
  0
LINE
  8
0
 10
-0.5079705409542095
 20
-1.03160931966898
 30
0
 11
-0.5118136104536298
 21
-1.044852916614989
 31
0
  0
LINE
  8
0
 10
-0.5013487424811501
 20
-1.02019242574996
 30
0
 11
-0.5079705409542095
 21
-1.03160931966898
 31
0
  0
LINE
  8
0
 10
-0.4915302137111794
 20
-1.01311395152047
 30
0
 11
-0.5013487424811501
 21
-1.02019242574996
 31
0
  0
LINE
  8
0
 10
-0.4819400228191298
 20
-1.00900386970949
 30
0
 11
-0.4915302137111794
 21
-1.01311395152047
 31
0
  0
LINE
  8
0
 10
-0.4611612758872289
 20
-1.009460545466467
 30
0
 11
-0.4819400228191298
 21
-1.00900386970949
 31
0
  0
LINE
  8
0
 10
-0.4495160440896288
 20
-1.013570627276978
 30
0
 11
-0.4611612758872289
 21
-1.009460545466467
 31
0
  0
LINE
  8
0
 10
-0.4401541910766699
 20
-1.020649101506981
 30
0
 11
-0.4495160440896288
 21
-1.013570627276978
 31
0
  0
LINE
  8
0
 10
-0.4339890683601898
 20
-1.030467630276918
 30
0
 11
-0.4401541910766699
 21
-1.020649101506981
 31
0
  0
LINE
  8
0
 10
-0.430335662306119
 20
-1.045081254492918
 30
0
 11
-0.4339890683601898
 21
-1.030467630276918
 31
0
  0
LINE
  8
0
 10
-0.4301073244276085
 20
-1.06197825749296
 30
0
 11
-0.430335662306119
 21
-1.045081254492918
 31
0
  0
LINE
  8
0
 10
-0.4335323926036089
 20
-1.076820219587469
 30
0
 11
-0.4301073244276085
 21
-1.06197825749296
 31
0
  0
LINE
  8
0
 10
-0.4399258531981686
 20
-1.08663874835748
 30
0
 11
-0.4335323926036089
 21
-1.076820219587469
 31
0
  0
LINE
  8
0
 10
-0.4497443819681394
 20
-1.09394556046548
 30
0
 11
-0.4399258531981686
 21
-1.08663874835748
 31
0
  0
LINE
  8
0
 10
-0.4595629107386994
 20
-1.098438665847978
 30
0
 11
-0.4497443819681394
 21
-1.09394556046548
 31
0
  0
LINE
  8
0
 10
-0.4817116849411996
 20
-1.098438665847978
 30
0
 11
-0.4595629107386994
 21
-1.098438665847978
 31
0
  0
LINE
  8
0
 10
-0.4924435652246193
 20
-1.095543925614409
 30
0
 11
-0.4817116849411996
 21
-1.098438665847978
 31
0
  0
LINE
  8
0
 10
-0.5015770803596589
 20
-1.087323761992968
 30
0
 11
-0.4924435652246193
 21
-1.095543925614409
 31
0
  0
LINE
  8
0
 10
-0.5081988788327201
 20
-1.076591881708959
 30
0
 11
-0.5015770803596589
 21
-1.087323761992968
 31
0
  0
LINE
  8
0
 10
-0.5118136104536298
 20
-1.06220659537147
 30
0
 11
-0.5081988788327201
 21
-1.076591881708959
 31
0
  0
LINE
  8
0
 10
-0.5118136104536298
 20
-1.044852916614989
 30
0
 11
-0.5118136104536298
 21
-1.06220659537147
 31
0
  0
LINE
  8
0
 10
-0.5086555545891497
 20
-1.01494065454747
 30
0
 11
-0.5118136104536298
 21
-1.044852916614989
 31
0
  0
LINE
  8
0
 10
-0.5018054182381601
 20
-1.000327030331468
 30
0
 11
-0.5086555545891497
 21
-1.01494065454747
 31
0
  0
LINE
  8
0
 10
-0.4878768076570996
 20
-0.9827450136964072
 30
0
 11
-0.5018054182381601
 21
-1.000327030331468
 31
0
  0
LINE
  8
0
 10
-0.4504293956036599
 20
-0.948325797100959
 30
0
 11
-0.4878768076570996
 21
-0.9827450136964072
 31
0
  0
LINE
  8
0
 10
-0.5651073244276085
 20
-0.948325797100959
 30
0
 11
-0.5651073244276085
 21
-1.098438665847978
 31
0
  0
LINE
  8
0
 10
-0.6064017012336499
 20
-0.9937178604414402
 30
0
 11
-0.5651073244276085
 21
-0.948325797100959
 31
0
  0
LINE
  8
0
 10
-0.674529757359649
 20
-1.023290915382939
 30
0
 11
-0.7284114562425602
 21
-1.024108500517908
 31
0
  0
LINE
  8
0
 10
-0.674529757359649
 20
-1.023290915382939
 30
0
 11
-0.63355993454907
 21
-1.098438665847978
 31
0
  0
LINE
  8
0
 10
-0.7284114562425602
 20
-1.024108500517908
 30
0
 11
-0.7284114562425602
 21
-0.948325797100959
 31
0
  0
LINE
  8
0
 10
-0.6656311419711892
 20
-1.023155890396487
 30
0
 11
-0.674529757359649
 21
-1.023290915382939
 31
0
  0
LINE
  8
0
 10
-0.6510244534421691
 20
-1.020933133446459
 30
0
 11
-0.6656311419711892
 21
-1.023155890396487
 31
0
  0
LINE
  8
0
 10
-0.6405457421065693
 20
-1.014264862596468
 30
0
 11
-0.6510244534421691
 21
-1.020933133446459
 31
0
  0
LINE
  8
0
 10
-0.6373703750351888
 20
-1.005056298088937
 30
0
 11
-0.6405457421065693
 21
-1.014264862596468
 31
0
  0
LINE
  8
0
 10
-0.6326073244276085
 20
-0.9952126601674572
 30
0
 11
-0.6373703750351888
 21
-1.005056298088937
 31
0
  0
LINE
  8
0
 10
-0.6329248611351994
 20
-0.9783832146889873
 30
0
 11
-0.6326073244276085
 21
-0.9952126601674572
 31
0
  0
LINE
  8
0
 10
-0.6418158889351798
 20
-0.9599660856744704
 30
0
 11
-0.6329248611351994
 21
-0.9783832146889873
 31
0
  0
LINE
  8
0
 10
-0.6503893800281586
 20
-0.9532978148244474
 30
0
 11
-0.6418158889351798
 21
-0.9599660856744704
 31
0
  0
LINE
  8
0
 10
-0.6637259217281298
 20
-0.948325797100959
 30
0
 11
-0.6503893800281586
 21
-0.9532978148244474
 31
0
  0
LINE
  8
0
 10
-0.7284114562425602
 20
-0.948325797100959
 30
0
 11
-0.6637259217281298
 21
-0.948325797100959
 31
0
  0
LINE
  8
0
 10
-0.7284114562425602
 20
-1.098438665847978
 30
0
 11
-0.7284114562425602
 21
-1.024108500517908
 31
0
  0
LINE
  8
0
 10
-0.7814471556362187
 20
-0.9559187655934984
 30
0
 11
-0.771977797441159
 21
-0.9633849903239097
 31
0
  0
LINE
  8
0
 10
-0.7905523077466388
 20
-0.9528230138754696
 30
0
 11
-0.7814471556362187
 21
-0.9559187655934984
 31
0
  0
LINE
  8
0
 10
-0.8083984058841597
 20
-0.948325797100959
 30
0
 11
-0.7905523077466388
 21
-0.9528230138754696
 31
0
  0
LINE
  8
0
 10
-0.822056134050159
 20
-0.948325797100959
 30
0
 11
-0.8083984058841597
 21
-0.948325797100959
 31
0
  0
LINE
  8
0
 10
-0.8451832204116599
 20
-0.9561008686354072
 30
0
 11
-0.822056134050159
 21
-0.948325797100959
 31
0
  0
LINE
  8
0
 10
-0.8561094029446593
 20
-0.9637491964084695
 30
0
 11
-0.8451832204116599
 21
-0.9561008686354072
 31
0
  0
LINE
  8
0
 10
-0.8588409485776503
 20
-0.9750395850259592
 30
0
 11
-0.8561094029446593
 21
-0.9637491964084695
 31
0
  0
LINE
  8
0
 10
-0.8593872577041693
 20
-0.9834163249679878
 30
0
 11
-0.8588409485776503
 21
-0.9750395850259592
 31
0
  0
LINE
  8
0
 10
-0.855745196860169
 20
-0.9937961983739371
 30
0
 11
-0.8593872577041693
 21
-0.9834163249679878
 31
0
  0
LINE
  8
0
 10
-0.8468221477916287
 20
-1.000169804851437
 30
0
 11
-0.855745196860169
 21
-0.9937961983739371
 31
0
  0
LINE
  8
0
 10
-0.7885491742826198
 20
-1.02766736422597
 30
0
 11
-0.8468221477916287
 21
-1.000169804851437
 31
0
  0
LINE
  8
0
 10
-0.7787156100030699
 20
-1.034951485914979
 30
0
 11
-0.7885491742826198
 21
-1.02766736422597
 31
0
  0
LINE
  8
0
 10
-0.7717956943986992
 20
-1.045877668447469
 30
0
 11
-0.7787156100030699
 21
-1.034951485914979
 31
0
  0
LINE
  8
0
 10
-0.7685178396386091
 20
-1.056803850980479
 30
0
 11
-0.7717956943986992
 21
-1.045877668447469
 31
0
  0
LINE
  8
0
 10
-0.7676073244276086
 20
-1.065544797006998
 30
0
 11
-0.7685178396386091
 21
-1.056803850980479
 31
0
  0
LINE
  8
0
 10
-0.7714314883142089
 20
-1.075378361286468
 30
0
 11
-0.7676073244276086
 21
-1.065544797006998
 31
0
  0
LINE
  8
0
 10
-0.7776229917496095
 20
-1.08721505903047
 30
0
 11
-0.7714314883142089
 21
-1.075378361286468
 31
0
  0
LINE
  8
0
 10
-0.7878207621136388
 20
-1.094499180718969
 30
0
 11
-0.7776229917496095
 21
-1.08721505903047
 31
0
  0
LINE
  8
0
 10
-0.80421003591308
 20
-1.098438665847978
 30
0
 11
-0.7878207621136388
 21
-1.094499180718969
 31
0
  0
LINE
  8
0
 10
-0.8258802979366193
 20
-1.098438665847978
 30
0
 11
-0.80421003591308
 21
-1.098438665847978
 31
0
  0
LINE
  8
0
 10
-0.8417232626096903
 20
-1.094863386803489
 30
0
 11
-0.8258802979366193
 21
-1.098438665847978
 31
0
  0
LINE
  8
0
 10
-0.855745196860169
 20
-1.087761368156978
 30
0
 11
-0.8417232626096903
 21
-1.094863386803489
 31
0
  0
LINE
  8
0
 10
-0.8628031485151787
 20
-1.079748834299469
 30
0
 11
-0.855745196860169
 21
-1.087761368156978
 31
0
  0
LINE
  8
0
 10
-0.9966927628236099
 20
-1.098438665847978
 30
0
 11
-0.9026073244276086
 21
-1.098438665847978
 31
0
  0
LINE
  8
0
 10
-0.9026073244276086
 20
-0.948325797100959
 30
0
 11
-0.9966927628236099
 21
-1.098438665847978
 31
0
  0
LINE
  8
0
 10
-0.9966927628236099
 20
-0.948325797100959
 30
0
 11
-0.9026073244276086
 21
-0.948325797100959
 31
0
  0
ARC
  8
0
 10
0
 20
0
 30
0
 40
0.5300000000000125
 50
128.3143076962667
 51
153.1785139000565
  0
ARC
  8
0
 10
0
 20
0
 30
0
 40
0.5300000000000126
 50
153.1785139000565
 51
178.0427201038457
  0
ARC
  8
0
 10
0
 20
0
 30
0
 40
0.5299999999999965
 50
178.0427201038457
 51
202.9069263076371
  0
ARC
  8
0
 10
0
 20
0
 30
0
 40
0.5299999999999947
 50
202.9069263076371
 51
227.7711325114294
  0
ARC
  8
0
 10
0
 20
0
 30
0
 40
0.5299999999999935
 50
227.7711325114294
 51
252.635338715219
  0
ARC
  8
0
 10
0
 20
0
 30
0
 40
0.5299999999999897
 50
252.635338715219
 51
277.4995449190114
  0
ARC
  8
0
 10
0
 20
0
 30
0
 40
0.5299999999999857
 50
277.4995449190114
 51
302.3637511228036
  0
ARC
  8
0
 10
0
 20
0
 30
0
 40
0.529999999999983
 50
302.3637511228036
 51
327.2279573265944
  0
ARC
  8
0
 10
0
 20
0
 30
0
 40
0.5299999999999832
 50
327.2279573265944
 51
352.0921635303845
  0
ARC
  8
0
 10
0
 20
0
 30
0
 40
0.5300000000000031
 50
352.0921635303845
 51
16.9563697341749
  0
ARC
  8
0
 10
0
 20
0
 30
0
 40
0.5300000000000067
 50
16.9563697341749
 51
41.82057593796535
  0
ARC
  8
0
 10
0
 20
0
 30
0
 40
0.5300000000000316
 50
51.6856923037307
 51
66.68478214175416
  0
ARC
  8
0
 10
0
 20
0
 30
0
 40
0.5300000000000278
 50
66.68478214175416
 51
91.54898834554309
  0
ARC
  8
0
 10
0
 20
0
 30
0
 40
0.5300000000000141
 50
41.82057593796535
 51
51.6856923037307
  0
ARC
  8
0
 10
0
 20
0
 30
0
 40
0.8575000000000232
 50
55.50169106410128
 51
124.4983089358974
  0
CIRCLE
  8
0
  6
DASHED
 10
0
 20
0
 30
0
 40
0.8875000000000017
  0
CIRCLE
  8
0
 10
-0.01432677639237954
 20
0.5298063263856201
 30
0
 40
0.07000000000000001
  0
INSERT
  8
0
  2
*D0
 10
0
 20
0
 30
0
 43
1
  0
INSERT
  8
0
  2
*D1
 10
0
 20
0
 30
0
 43
1
  0
ENDSEC
  0
EOF
