  0
SECTION
  2
HEADER
  9
$ACADVER
  1
AC1009
  9
$INSBASE
 10
0
 20
0
  9
$EXTMIN
 10
-1.1965280944718
 20
-1.451145315070389
  9
$EXTMAX
 10
1.2385110232016
 20
1.101624631482411
  9
$LIMMIN
 10
-1.1965280944718
 20
-1.451145315070389
  9
$LIMMAX
 10
1.2385110232016
 20
1.101624631482411
  9
$VIEWCTR
 10
10
 20
10
  9
$VIEWSIZE
 40
10
  9
$SNAPMODE
 70
0
  9
$SNAPUNIT
 10
1
 20
1
  9
$SNAPBASE
 10
0
 20
0
  9
$SNAPANG
 50
0
  9
$SNAPSTYLE
 70
0
  9
$SNAPISOPAIR
 70
0
  9
$GRIDMODE
 70
0
  9
$GRIDUNIT
 10
0
 20
0
  9
$ORTHOMODE
 70
0
  9
$REGENMODE
 70
1
  9
$FILLMODE
 70
1
  9
$QTEXTMODE
 70
0
  9
$DRAGMODE
 70
2
  9
$LTSCALE
 40
1
  9
$OSMODE
 70
0
  9
$ATTMODE
 70
1
  9
$TEXTSIZE
 40
3.5
  9
$TRACEWID
 40
0.5
  9
$TEXTSTYLE
  7
STANDARD
  9
$CLAYER
  8
0
  9
$CELTYPE
  6
BYLAYER
  9
$CECOLOR
 62
256
  9
$DIMSCALE
 40
1
  9
$DIMASZ
 40
0.18
  9
$DIMEXO
 40
0.0625
  9
$DIMDLI
 40
0.38
  9
$DIMRND
 40
0
  9
$DIMDLE
 40
0
  9
$DIMEXE
 40
0.18
  9
$DIMTP
 40
0
  9
$DIMTM
 40
0
  9
$DIMTXT
 40
0.18
  9
$DIMCEN
 40
0.09
  9
$DIMTSZ
 40
0
  9
$DIMTOL
 70
0
  9
$DIMLIM
 70
0
  9
$DIMTIH
 70
1
  9
$DIMTOH
 70
1
  9
$DIMSE1
 70
0
  9
$DIMSE2
 70
0
  9
$DIMTAD
 70
0
  9
$DIMZIN
 70
0
  9
$DIMBLK
  1

  9
$DIMASO
 70
1
  9
$DIMSHO
 70
1
  9
$DIMPOST
  1

  9
$DIMAPOST
  1

  9
$DIMALT
 70
0
  9
$DIMALTD
 70
2
  9
$DIMALTF
 40
25.4
  9
$DIMLFAC
 40
1
  9
$DIMTOFL
 70
0
  9
$DIMTVP
 40
0
  9
$DIMTIX
 70
0
  9
$DIMSOXD
 70
0
  9
$DIMSAH
 70
0
  9
$DIMBLK1
  1

  9
$DIMBLK2
  1

  9
$DIMSTYLE
  2
*UNNAMED
  9
$DIMCLRD
 70
0
  9
$DIMCLRE
 70
0
  9
$DIMCLRT
 70
0
  9
$DIMTFAC
 40
1
  9
$DIMGAP
 40
0.09
  9
$LUNITS
 70
2
  9
$LUPREC
 70
4
  9
$AXISMODE
 70
0
  9
$AXISUNIT
 10
0
 20
0
  9
$SKETCHINC
 40
0.1
  9
$FILLETRAD
 40
2
  9
$AUNITS
 70
0
  9
$AUPREC
 70
0
  9
$MENU
  1
ACAD
  9
$ELEVATION
 40
0
  9
$THICKNESS
 40
0
  9
$VIEWDIR
 10
0
 20
0
 30
1
  9
$LIMCHECK
 70
0
  9
$BLIPMODE
 70
1
  9
$CHAMFERA
 40
0
  9
$CHAMFERB
 40
0
  9
$FASTZOOM
 70
1
  9
$SKPOLY
 70
0
  9
$ANGBASE
 50
0
  9
$ANGDIR
 70
0
  9
$PDMODE
 70
0
  9
$PDSIZE
 40
0
  9
$PLINEWID
 40
0
  9
$COORDS
 70
2
  0
ENDSEC
  0
SECTION
  2
TABLES
  0
TABLE
  2
LTYPE
 70
9
  0
LTYPE
  2
CONTINUOUS
 70
64
  3
Solid line
 72
65
 73
0
 40
0
  0
LTYPE
  2
BORDER
 70
64
  3
__ __ . __ __ .
 72
65
 73
6
 40
0.1175617738544053
 49
0.03358907824411579
 49
-0.0167945391220579
 49
0.03358907824411579
 49
-0.0167945391220579
 49
0
 49
-0.0167945391220579
  0
LTYPE
  2
CENTER
 70
64
  3
____ _ ____ _
 72
65
 73
4
 40
0.1343563129764632
 49
0.08397269561028947
 49
-0.0167945391220579
 49
0.0167945391220579
 49
-0.0167945391220579
  0
LTYPE
  2
DASHDOT
 70
64
  3
__ . __ . __ .
 72
65
 73
4
 40
0.06717815648823158
 49
0.03358907824411579
 49
-0.0167945391220579
 49
0
 49
-0.0167945391220579
  0
LTYPE
  2
DASHED
 70
64
  3
__ __ __ __ __
 72
65
 73
2
 40
0.05038361736617369
 49
0.03358907824411579
 49
-0.0167945391220579
  0
LTYPE
  2
DIVIDE
 70
64
  3
__ . . __ . . 
 72
65
 73
6
 40
0.08397269561028947
 49
0.03358907824411579
 49
-0.0167945391220579
 49
0
 49
-0.0167945391220579
 49
0
 49
-0.0167945391220579
  0
LTYPE
  2
DOT
 70
64
  3
..............
 72
65
 73
4
 40
0.03358907824411579
 49
0
 49
-0.0167945391220579
 49
0
 49
-0.0167945391220579
  0
LTYPE
  2
HIDDEN
 70
64
  3
_ _ _ _ _ _ _
 72
65
 73
2
 40
0.02519180868308684
 49
0.0167945391220579
 49
-0.008397269561028948
  0
LTYPE
  2
PHANTOM
 70
64
  3
_____ _ _ _____ _ _ 
 72
65
 73
6
 40
0.1679453912205789
 49
0.08397269561028947
 49
-0.0167945391220579
 49
0.0167945391220579
 49
-0.0167945391220579
 49
0.0167945391220579
 49
-0.0167945391220579
  0
ENDTAB
  0
TABLE
  2
LAYER
 70
2
  0
LAYER
  2
0
 70
0
 62
7
  6
CONTINUOUS
  0
ENDTAB
  0
TABLE
  2
STYLE
 70
4
  0
STYLE
  2
STANDARD
 70
0
 40
0
 41
1
 50
0
 71
0
 42
3.5
  3
txt
  4

  0
STYLE
  2
SIMPLEX
 70
0
 40
0
 41
1
 50
0
 71
0
 42
3.5
  3
simplex
  4

  0
STYLE
  2
COMPLEX
 70
0
 40
0
 41
1
 50
0
 71
0
 42
3.5
  3
complex
  4

  0
STYLE
  2
ITALIC
 70
0
 40
0
 41
1
 50
0
 71
0
 42
3.5
  3
italic
  4

  0
ENDTAB
  0
TABLE
  2
VIEW
 70
0
  0
ENDTAB
  0
ENDSEC
  0
SECTION
  2
BLOCKS
  0
BLOCK
  8
0
  2
*D0
 70
1
 10
0
 20
0
 30
0
  0
LINE
  8
0
 10
1.2085110232016
 20
-1.012499999999989
 30
0
 11
1.2085110232016
 21
1.0125
 31
0
  0
LINE
  8
0
 10
0.05000000000036309
 20
-1.012499999999989
 30
0
 11
1.2385110232016
 21
-1.012499999999989
 31
0
  0
LINE
  8
0
 10
0.05000000000036309
 20
1.0125
 30
0
 11
1.2385110232016
 21
1.0125
 31
0
  0
LINE
  8
0
 10
1.226188692731264
 20
0.9948223304703365
 30
0
 11
1.190833353671936
 21
1.030177669529664
 31
0
  0
LINE
  8
0
 10
1.190833353671936
 20
-0.9948223304703252
 30
0
 11
1.226188692731264
 21
-1.030177669529653
 31
0
  0
TEXT
  8
0
 62
7
 10
1.1935110232016
 20
-0.333762379437248
 30
0
 40
0.05
  1
Durchmesser 2,03
 50
90
 41
0.9
  0
ENDBLK
  8
0
  0
BLOCK
  8
0
  2
*D1
 70
1
 10
0
 20
0
 30
0
  0
LINE
  8
0
 10
-1.1315280944718
 20
-0.9350000000000002
 30
0
 11
-1.1315280944718
 21
0.9350000000000002
 31
0
  0
LINE
  8
0
 10
-0.049999999999637
 20
-0.9350000000000002
 30
0
 11
-1.1615280944718
 21
-0.9350000000000002
 31
0
  0
LINE
  8
0
 10
-0.049999999999637
 20
0.9350000000000002
 30
0
 11
-1.1615280944718
 21
0.9350000000000002
 31
0
  0
LINE
  8
0
 10
-1.113850424942136
 20
0.9173223304703365
 30
0
 11
-1.149205764001463
 21
0.9526776695296638
 31
0
  0
LINE
  8
0
 10
-1.149205764001463
 20
-0.9173223304703365
 30
0
 11
-1.113850424942136
 21
-0.9526776695296638
 31
0
  0
TEXT
  8
0
 62
7
 10
-1.1465280944718
 20
-0.3073300241162656
 30
0
 40
0.05
  1
Durchmesser 1,87
 50
90
 41
0.9
  0
ENDBLK
  8
0
  0
ENDSEC
  0
SECTION
  2
ENTITIES
  0
POINT
  8
0
  6
DASHED
 10
3.637978807091713e-13
 20
0
 30
0
  0
LINE
  8
0
  6
DASHED
 10
-0.02732994933006012
 20
0.08933891941886031
 30
0
 11
-0.1283655711902393
 21
0.0341084449866903
 31
0
  0
LINE
  8
0
  6
DASHED
 10
0.01024746742794741
 20
0.09286203780154029
 30
0
 11
-0.1549574066445694
 21
0.07737304523718012
 31
0
  0
LINE
  8
0
  6
DASHED
 10
0.04615249180861065
 20
0.08123002002477007
 30
0
 11
-0.2079187636962142
 21
0.16354054373492
 31
0
  0
LINE
  8
0
  6
DASHED
 10
0.07452540388583384
 20
0.05634121785196112
 30
0
 11
-0.395387838300333
 21
0.46855050011821
 31
0
  0
LINE
  8
0
 10
0.8158293837329583
 20
0.4618751634787203
 30
0
 11
0.5585707352783539
 21
0.7340471341345111
 31
0
  0
LINE
  8
0
 10
0.9320001550792059
 20
0.1014000046006695
 30
0
 11
0.8034197653868341
 21
0.453148035443641
 31
0
  0
LINE
  8
0
 10
0.8960679833365103
 20
-0.2756236913617795
 30
0
 11
0.9171502434380218
 21
0.09829492561838014
 31
0
  0
LINE
  8
0
 10
0.7138970188956846
 20
-0.6076654477690591
 30
0
 11
0.881201292230102
 21
-0.2725999706763105
 31
0
  0
LINE
  8
0
 10
0.4152176643599934
 20
-0.8405358655070796
 30
0
 11
0.7014398005719231
 21
-0.5990064003115604
 31
0
  0
LINE
  8
0
 10
0.04877455632334386
 20
-0.9362303630279802
 30
0
 11
0.4072029437700203
 21
-0.8276546526332205
 31
0
  0
LINE
  8
0
 10
-0.8625767013075439
 20
-0.3672433584978298
 30
0
 11
-0.6375423974487294
 21
-0.6666079454184092
 31
0
  0
LINE
  8
0
 10
-0.6468889629214956
 20
-0.6785579707363906
 30
0
 11
-0.3217727765092032
 21
-0.8644586408483701
 31
0
  0
LINE
  8
0
 10
-0.3256285864022938
 20
-0.8791315451725096
 30
0
 11
0.04651034032008464
 21
-0.9212292058350303
 31
0
  0
LINE
  8
0
 10
-0.937491442828823
 20
0.004005573872529567
 30
0
 11
-0.8492647449328152
 21
-0.3599664629568288
 31
0
  0
LINE
  8
0
 10
-0.8594070600495743
 20
0.3746007943615605
 30
0
 11
-0.9223866142280622
 21
0.005421746241510847
 31
0
  0
LINE
  8
0
 10
-0.6410669676197778
 20
0.6840609570983598
 30
0
 11
-0.8449744756420295
 21
0.3699251234411495
 31
0
  0
LINE
  8
0
 10
-0.5530917786953378
 20
0.7251329368904099
 30
0
 11
-0.6296620331988855
 21
0.6740565149803698
 31
0
  0
LINE
  8
0
 10
-0.5901861000013578
 20
0.7854849568036099
 30
0
 11
-0.07782171410724914
 21
-0.04812580979310042
 31
0
  0
LINE
  8
0
 10
-0.07782171410724914
 20
-0.04812580979310042
 30
0
 11
0.4152176643599934
 21
-0.8405358655070796
 31
0
  0
LINE
  8
0
 10
0.5360616071489148
 20
0.4686629024313896
 30
0
 11
0.3744285784624353
 21
0.2819419349542604
 31
0
  0
LINE
  8
0
 10
0.3831583158357952
 20
0.4486532124103796
 30
0
 11
0.5360616071489148
 21
0.4686629024313896
 31
0
  0
LINE
  8
0
 10
0.3744285784624353
 20
0.2819419349542604
 30
0
 11
0.3831583158357952
 21
0.4486532124103796
 31
0
  0
LINE
  8
0
 10
0.06807136103756513
 20
-0.06398951835946901
 30
0
 11
0.5901861000020817
 21
0.7854849568036099
 31
0
  0
LINE
  8
0
 10
0.03719902128949434
 20
-0.08570065033864012
 30
0
 11
0.8158293837329583
 21
0.4618751634787203
 31
0
  0
LINE
  8
0
 10
0.0002557806008026091
 20
-0.0934253885708804
 30
0
 11
0.9320001550792059
 21
0.1014000046006695
 31
0
  0
LINE
  8
0
 10
-0.0367292036239769
 20
-0.08590305148512925
 30
0
 11
0.8960679833365103
 21
-0.2756236913617795
 31
0
  0
LINE
  8
0
 10
-0.06793452934077868
 20
-0.06421214190277898
 30
0
 11
0.7138970188956846
 21
-0.6076654477690591
 31
0
  0
LINE
  8
0
 10
-0.09329164411045621
 20
0.005003777816300499
 30
0
 11
0.04877455632334386
 21
-0.9362303630279802
 31
0
  0
LINE
  8
0
 10
-0.08369925619783772
 20
0.04150666410592021
 30
0
 11
-0.3256285864022938
 21
-0.8791315451725096
 31
0
  0
LINE
  8
0
 10
-0.06044710317387127
 20
0.07123563975410981
 30
0
 11
-0.6468889629214956
 21
-0.6785579707363906
 31
0
  0
LINE
  8
0
 10
-0.1283655711902393
 20
0.0341084449866903
 30
0
 11
-0.8625767013075439
 21
-0.3672433584978298
 31
0
  0
LINE
  8
0
 10
-0.1549574066445694
 20
0.07737304523718012
 30
0
 11
-0.937491442828823
 21
0.004005573872529567
 31
0
  0
LINE
  8
0
 10
-0.2079187636962142
 20
0.16354054373492
 30
0
 11
-0.8594070600495743
 21
0.3746007943615605
 31
0
  0
LINE
  8
0
 10
-0.395387838300333
 20
0.46855050011821
 30
0
 11
-0.6410669676197778
 21
0.6840609570983598
 31
0
  0
LINE
  8
0
  6
DASHED
 10
0.1039737716719027
 20
-0.00557672294369877
 30
0
 11
-0.3181043899245361
 21
0.8818819916012106
 31
0
  0
LINE
  8
0
  6
DASHED
 10
-0.3181043899245361
 20
0.8818819916012106
 30
0
 11
-0.5530917786953378
 21
0.7251329368904099
 31
0
  0
LINE
  8
0
 10
1.070854913954899
 20
0
 30
0
 11
-1.07914777910285
 21
0
 31
0
  0
LINE
  8
0
 10
3.628883860073985e-13
 20
1.0125
 30
0
 11
3.628883860073985e-13
 21
1.101624631482411
 31
0
  0
LINE
  8
0
 10
3.628883860073985e-13
 20
0.9350000000000002
 30
0
 11
3.628883860073985e-13
 21
1.0125
 31
0
  0
LINE
  8
0
 10
3.628883860073985e-13
 20
-1.10515630170889
 30
0
 11
3.628883860073985e-13
 21
-1.012499999999989
 31
0
  0
LINE
  8
0
 10
3.628883860073985e-13
 20
-0.9350000000000002
 30
0
 11
3.628883860073985e-13
 21
0.9350000000000002
 31
0
  0
LINE
  8
0
 10
3.628883860073985e-13
 20
-1.012499999999989
 30
0
 11
3.628883860073985e-13
 21
-0.9350000000000002
 31
0
  0
LINE
  8
0
 10
-0.3378566168135658
 20
-0.5707481412753695
 30
0
 11
-0.4201950470736575
 21
-0.6000363663546197
 31
0
  0
LINE
  8
0
 10
-0.3378566168135658
 20
-0.5707481412753695
 30
0
 11
-0.3579406053106559
 21
-0.4857263939523002
 31
0
  0
LINE
  8
0
 10
-0.304343361955107
 20
-0.5588272952216503
 30
0
 11
-0.2858993301876563
 21
-0.5249608480635689
 31
0
  0
LINE
  8
0
 10
-0.304343361955107
 20
-0.5588272952216503
 30
0
 11
-0.3378566168135658
 21
-0.5707481412753695
 31
0
  0
LINE
  8
0
 10
-0.348153771950676
 20
-0.6392708204658701
 30
0
 11
-0.304343361955107
 21
-0.5588272952216503
 31
0
  0
LINE
  8
0
 10
-0.4817845445638558
 20
-0.4644910297939405
 30
0
 11
-0.4303361113155871
 21
-0.4148893229513396
 31
0
  0
LINE
  8
0
 10
-0.4817845445638558
 20
-0.4644910297939405
 30
0
 11
-0.5306439092317069
 21
-0.4135435299254404
 31
0
  0
LINE
  8
0
 10
-0.5240415927618951
 20
-0.5052312736539698
 30
0
 11
-0.5809414926116852
 21
-0.4462129276009891
 31
0
  0
LINE
  8
0
 10
-0.4303361113155871
 20
-0.4148893229513396
 30
0
 11
-0.4872360111654061
 21
-0.3558709768983299
 31
0
  0
LINE
  8
0
 10
-0.5240415927618951
 20
-0.5052312736539698
 30
0
 11
-0.4817845445638558
 21
-0.4644910297939405
 31
0
  0
LINE
  8
0
 10
-0.5348993257576767
 20
-0.2668427070488597
 30
0
 11
-0.6513733969021669
 21
-0.3249475782807403
 31
0
  0
LINE
  8
0
 10
-0.6879850262734164
 20
-0.2515577671737901
 30
0
 11
-0.571510955128927
 21
-0.1934528959419004
 31
0
  0
LINE
  8
0
 10
-0.571510955128927
 20
-0.1934528959419004
 30
0
 11
-0.6513733969021669
 21
-0.3249475782807403
 31
0
  0
LINE
  8
0
 10
-0.5902853148856266
 20
-0.0942632803985598
 30
0
 11
-0.7188196585477071
 21
-0.114789064408269
 31
0
  0
LINE
  8
0
 10
-0.7317528667415373
 20
-0.03380012747643013
 30
0
 11
-0.6032185230794859
 21
-0.01327434346670998
 31
0
  0
LINE
  8
0
 10
-0.6032185230794859
 20
-0.01327434346670998
 30
0
 11
-0.7188196585477071
 21
-0.114789064408269
 31
0
  0
LINE
  8
0
 10
-0.5977105667294272
 20
0.09997602275949068
 30
0
 11
-0.5857232591057073
 21
0.1183969287219606
 31
0
  0
LINE
  8
0
 10
-0.6053817154800474
 20
0.09525532297312021
 30
0
 11
-0.5977105667294272
 21
0.09997602275949068
 31
0
  0
LINE
  8
0
 10
-0.6282442293287768
 20
0.09240115262770997
 30
0
 11
-0.6053817154800474
 21
0.09525532297312021
 31
0
  0
LINE
  8
0
 10
-0.680862103229917
 20
0.1001242513246707
 30
0
 11
-0.6282442293287768
 21
0.09240115262770997
 31
0
  0
LINE
  8
0
 10
-0.7018097027563672
 20
0.1090315397169197
 30
0
 11
-0.680862103229917
 21
0.1001242513246707
 31
0
  0
LINE
  8
0
 10
-0.7128805547834562
 20
0.1261218160888111
 30
0
 11
-0.7018097027563672
 21
0.1090315397169197
 31
0
  0
LINE
  8
0
 10
-0.7144521519826958
 20
0.1376685848546804
 30
0
 11
-0.7128805547834562
 21
0.1261218160888111
 31
0
  0
LINE
  8
0
 10
-0.6490013277784874
 20
0.178418522594211
 30
0
 11
-0.653201609525946
 21
0.1498017841566398
 31
0
  0
LINE
  8
0
 10
-0.5784337378794774
 20
0.1680608167199898
 30
0
 11
-0.6490013277784874
 21
0.178418522594211
 31
0
  0
LINE
  8
0
 10
-0.5857232591057073
 20
0.1183969287219606
 30
0
 11
-0.5784337378794774
 21
0.1680608167199898
 31
0
  0
LINE
  8
0
 10
-0.7071084335726573
 20
0.1877017210902504
 30
0
 11
-0.7144521519826958
 21
0.1376685848546804
 31
0
  0
LINE
  8
0
 10
-0.5320941101349672
 20
0.2806647847146396
 30
0
 11
-0.5247328388795868
 21
0.2864701321059001
 31
0
  0
LINE
  8
0
 10
-0.544865100128076
 20
0.2739339939745496
 30
0
 11
-0.5320941101349672
 21
0.2806647847146396
 31
0
  0
LINE
  8
0
 10
-0.5601451966754157
 20
0.2731466098476903
 30
0
 11
-0.544865100128076
 21
0.2739339939745496
 31
0
  0
LINE
  8
0
 10
-0.5735330215152662
 20
0.2766245858186903
 30
0
 11
-0.5601451966754157
 21
0.2731466098476903
 31
0
  0
LINE
  8
0
 10
-0.6205065794320362
 20
0.300876291429091
 30
0
 11
-0.5735330215152662
 21
0.2766245858186903
 31
0
  0
LINE
  8
0
 10
-0.6303608796032458
 20
0.3093978572966607
 30
0
 11
-0.6205065794320362
 21
0.300876291429091
 31
0
  0
LINE
  8
0
 10
-0.6341956629033666
 20
0.3175750213806095
 30
0
 11
-0.6303608796032458
 21
0.3093978572966607
 31
0
  0
LINE
  8
0
 10
-0.6377937602418451
 20
0.3250102556369202
 30
0
 11
-0.6341956629033666
 21
0.3175750213806095
 31
0
  0
LINE
  8
0
 10
-0.6408388057980975
 20
0.337117818852621
 30
0
 11
-0.6377937602418451
 21
0.3250102556369202
 31
0
  0
LINE
  8
0
 10
-0.6397594271222571
 20
0.3474058733211295
 30
0
 11
-0.6408388057980975
 21
0.337117818852621
 31
0
  0
LINE
  8
0
 10
-0.6318018362187359
 20
0.3628190720128096
 30
0
 11
-0.6397594271222571
 21
0.3474058733211295
 31
0
  0
LINE
  8
0
 10
-0.6239290722296573
 20
0.3686702100921702
 30
0
 11
-0.6318018362187359
 21
0.3628190720128096
 31
0
  0
LINE
  8
0
 10
-0.6141258015495968
 20
0.3744542569860896
 30
0
 11
-0.6239290722296573
 21
0.3686702100921702
 31
0
  0
LINE
  8
0
 10
-0.5962409826166859
 20
0.3766856608400503
 30
0
 11
-0.6141258015495968
 21
0.3744542569860896
 31
0
  0
LINE
  8
0
 10
-0.5826029286369468
 20
0.3742925436500809
 30
0
 11
-0.5962409826166859
 21
0.3766856608400503
 31
0
  0
LINE
  8
0
 10
-0.5351400628250467
 20
0.3497882161061807
 30
0
 11
-0.5826029286369468
 21
0.3742925436500809
 31
0
  0
LINE
  8
0
 10
-0.5254017128417073
 20
0.3410420642671306
 30
0
 11
-0.5351400628250467
 21
0.3497882161061807
 31
0
  0
LINE
  8
0
 10
-0.5207066567320562
 20
0.3327306212301701
 30
0
 11
-0.5254017128417073
 21
0.3410420642671306
 31
0
  0
LINE
  8
0
 10
-0.516145879575427
 20
0.3235589053836211
 30
0
 11
-0.5207066567320562
 21
0.3327306212301701
 31
0
  0
LINE
  8
0
 10
-0.5150341616415663
 20
0.31430868648658
 30
0
 11
-0.516145879575427
 21
0.3235589053836211
 31
0
  0
LINE
  8
0
 10
-0.5161436931425669
 20
0.3031066005347711
 30
0
 11
-0.5150341616415663
 21
0.31430868648658
 31
0
  0
LINE
  8
0
 10
-0.5247328388795868
 20
0.2864701321059001
 30
0
 11
-0.5161436931425669
 21
0.3031066005347711
 31
0
  0
LINE
  8
0
 10
-0.4982798980515764
 20
0.5285167506937596
 30
0
 11
-0.4702070291178271
 21
0.5583622373421113
 31
0
  0
LINE
  8
0
 10
-0.4034683120331374
 20
0.4393363242173709
 30
0
 11
-0.4982798980515764
 21
0.5285167506937596
 31
0
  0
LINE
  8
0
 10
-0.5268994660906374
 20
0.4980900444740109
 30
0
 11
-0.4982798980515764
 21
0.5285167506937596
 31
0
  0
LINE
  8
0
 10
-0.3606960170548064
 20
0.6336572245540412
 30
0
 11
-0.3263069715845758
 21
0.6559335033072512
 31
0
  0
LINE
  8
0
 10
-0.2899298960640372
 20
0.5244118977442995
 30
0
 11
-0.3606960170548064
 21
0.6336572245540412
 31
0
  0
LINE
  8
0
 10
-0.3957547646647472
 20
0.6109471311559902
 30
0
 11
-0.3606960170548064
 21
0.6336572245540412
 31
0
  0
LINE
  8
0
 10
0.4905022083620334
 20
0.5378529672830409
 30
0
 11
0.5207769231531638
 21
0.5102435361450607
 31
0
  0
LINE
  8
0
 10
0.4027940069142733
 20
0.4416778316780309
 30
0
 11
0.4905022083620334
 21
0.5378529672830409
 31
0
  0
LINE
  8
0
 10
0.4596379150875127
 20
0.5660000724057409
 30
0
 11
0.4905022083620334
 21
0.5378529672830409
 31
0
  0
LINE
  8
0
 10
0.5964697219237732
 20
0.2930466874706508
 30
0
 11
0.5723580626497441
 21
0.333071270699711
 31
0
  0
LINE
  8
0
 10
0.5964697219237732
 20
0.2930466874706508
 30
0
 11
0.5580187142472931
 21
0.2295687323207203
 31
0
  0
LINE
  8
0
 10
0.5723580626497441
 20
0.333071270699711
 30
0
 11
0.6291527203507632
 21
0.3661216810003498
 31
0
  0
LINE
  8
0
 10
0.6004517860885225
 20
0.2864365883159007
 30
0
 11
0.5964697219237732
 21
0.2930466874706508
 31
0
  0
LINE
  8
0
 10
0.6084878911849136
 20
0.2764591289239706
 30
0
 11
0.6004517860885225
 21
0.2864365883159007
 31
0
  0
LINE
  8
0
 10
0.618055349678154
 20
0.2715141253945512
 30
0
 11
0.6084878911849136
 21
0.2764591289239706
 31
0
  0
LINE
  8
0
 10
0.6263414680847729
 20
0.27315042159103
 30
0
 11
0.618055349678154
 21
0.2715141253945512
 31
0
  0
LINE
  8
0
 10
0.6357959582367532
 20
0.2738738115047508
 30
0
 11
0.6263414680847729
 21
0.27315042159103
 31
0
  0
LINE
  8
0
 10
0.6482701487070537
 20
0.2814514570744795
 30
0
 11
0.6357959582367532
 21
0.2738738115047508
 31
0
  0
LINE
  8
0
 10
0.6581951366992724
 20
0.2961468493049997
 30
0
 11
0.6482701487070537
 21
0.2814514570744795
 31
0
  0
LINE
  8
0
 10
0.6594535341666942
 20
0.3054803455729307
 30
0
 11
0.6581951366992724
 21
0.2961468493049997
 31
0
  0
LINE
  8
0
 10
0.6573634249023526
 20
0.3176436955853605
 30
0
 11
0.6594535341666942
 21
0.3054803455729307
 31
0
  0
LINE
  8
0
 10
0.6291527203507632
 20
0.3661216810003498
 30
0
 11
0.6573634249023526
 21
0.3176436955853605
 31
0
  0
LINE
  8
0
 10
0.5166519964045528
 20
0.3006543424152005
 30
0
 11
0.5723580626497441
 21
0.333071270699711
 31
0
  0
LINE
  8
0
 10
0.6527116339833137
 20
0.1477693709917912
 30
0
 11
0.5830103716447628
 21
0.1319894903264812
 31
0
  0
LINE
  8
0
 10
0.6527116339833137
 20
0.1477693709917912
 30
0
 11
0.6681159916805828
 21
0.07888112074160017
 31
0
  0
LINE
  8
0
 10
0.7099605999117939
 20
0.1607301384191396
 30
0
 11
0.7280622679117842
 21
0.08077331638768011
 31
0
  0
LINE
  8
0
 10
0.5830103716447628
 20
0.1319894903264812
 30
0
 11
0.6011120396447331
 21
0.05203266829503082
 31
0
  0
LINE
  8
0
 10
0.7099605999117939
 20
0.1607301384191396
 30
0
 11
0.6527116339833137
 21
0.1477693709917912
 31
0
  0
LINE
  8
0
 10
0.6594520437039028
 20
-0.1215152555062505
 30
0
 11
0.655366874256064
 21
-0.1106827352116488
 31
0
  0
LINE
  8
0
 10
0.6625294758326036
 20
-0.1311601790867189
 30
0
 11
0.6594520437039028
 21
-0.1215152555062505
 31
0
  0
LINE
  8
0
 10
0.6710859877197836
 20
-0.1346237842075498
 30
0
 11
0.6625294758326036
 21
-0.1311601790867189
 31
0
  0
LINE
  8
0
 10
0.6803758201718136
 20
-0.1392525036177503
 30
0
 11
0.6710859877197836
 21
-0.1346237842075498
 31
0
  0
LINE
  8
0
 10
0.6925176046251527
 20
-0.139418480027749
 30
0
 11
0.6803758201718136
 21
-0.1392525036177503
 31
0
  0
LINE
  8
0
 10
0.708905907274453
 20
-0.1349597088052487
 30
0
 11
0.6925176046251527
 21
-0.139418480027749
 31
0
  0
LINE
  8
0
 10
0.7171020444879942
 20
-0.125962147869619
 30
0
 11
0.708905907274453
 21
-0.1349597088052487
 31
0
  0
LINE
  8
0
 10
0.7209710642422033
 20
-0.1146762638565488
 30
0
 11
0.7171020444879942
 21
-0.125962147869619
 31
0
  0
LINE
  8
0
 10
0.7254965849223736
 20
-0.05943850678902891
 30
0
 11
0.7209710642422033
 21
-0.1146762638565488
 31
0
  0
LINE
  8
0
 10
0.6600048070580742
 20
-0.05407289437383952
 30
0
 11
0.7254965849223736
 21
-0.05943850678902891
 31
0
  0
LINE
  8
0
 10
0.6600048070580742
 20
-0.05407289437383952
 30
0
 11
0.655366874256064
 21
-0.1106827352116488
 31
0
  0
LINE
  8
0
 10
0.595768319615403
 20
-0.04881012543144971
 30
0
 11
0.6600048070580742
 21
-0.05407289437383952
 31
0
  0
LINE
  8
0
 10
0.5927189466686941
 20
-0.313571691206289
 30
0
 11
0.5920681481710126
 21
-0.3020127740136195
 31
0
  0
LINE
  8
0
 10
0.5927642631306625
 20
-0.3236955780980588
 30
0
 11
0.5927189466686941
 21
-0.313571691206289
 31
0
  0
LINE
  8
0
 10
0.599889377143434
 20
-0.3295644115778705
 30
0
 11
0.5927642631306625
 21
-0.3236955780980588
 31
0
  0
LINE
  8
0
 10
0.6073649091498028
 20
-0.3367645818249493
 30
0
 11
0.599889377143434
 21
-0.3295644115778705
 31
0
  0
LINE
  8
0
 10
0.6188988075973428
 20
-0.3405619051561189
 30
0
 11
0.6073649091498028
 21
-0.3367645818249493
 31
0
  0
LINE
  8
0
 10
0.6358700862290134
 20
-0.3412197851949405
 30
0
 11
0.6188988075973428
 21
-0.3405619051561189
 31
0
  0
LINE
  8
0
 10
0.6463860890223841
 20
-0.3350922691187097
 30
0
 11
0.6358700862290134
 21
-0.3412197851949405
 31
0
  0
LINE
  8
0
 10
0.6534597124342436
 20
-0.3254847541621202
 30
0
 11
0.6463860890223841
 21
-0.3350922691187097
 31
0
  0
LINE
  8
0
 10
0.6743323381262635
 20
-0.2741425333297502
 30
0
 11
0.6534597124342436
 21
-0.3254847541621202
 31
0
  0
LINE
  8
0
 10
0.6134592415285642
 20
-0.2493952329714793
 30
0
 11
0.6743323381262635
 21
-0.2741425333297502
 31
0
  0
LINE
  8
0
 10
0.6134592415285642
 20
-0.2493952329714793
 30
0
 11
0.5920681481710126
 21
-0.3020127740136195
 31
0
  0
LINE
  8
0
 10
0.553752908417584
 20
-0.2251222677146998
 30
0
 11
0.6134592415285642
 21
-0.2493952329714793
 31
0
  0
LINE
  8
0
 10
0.5159206574424643
 20
-0.4262559552246802
 30
0
 11
0.4608269235207626
 21
-0.380737265788739
 31
0
  0
LINE
  8
0
 10
0.5159206574424643
 20
-0.4262559552246802
 30
0
 11
0.4708158770926039
 21
-0.4805555320940002
 31
0
  0
LINE
  8
0
 10
0.5611717646725629
 20
-0.4636426224555798
 30
0
 11
0.5089556407714535
 21
-0.5268426238677294
 31
0
  0
LINE
  8
0
 10
0.4608269235207626
 20
-0.380737265788739
 30
0
 11
0.4086107996196642
 21
-0.4439372672009104
 31
0
  0
LINE
  8
0
 10
0.5611717646725629
 20
-0.4636426224555798
 30
0
 11
0.5159206574424643
 21
-0.4262559552246802
 31
0
  0
LINE
  8
0
 10
-0.2346495887740919
 20
-1.20316588282974
 30
0
 11
-0.2346495887740919
 21
-1.14301416855625
 31
0
  0
LINE
  8
0
 10
-0.2960307749186638
 20
-1.17329059121522
 30
0
 11
-0.2146671498191888
 21
-1.17329059121522
 31
0
  0
LINE
  8
0
 10
-0.2346495887740919
 20
-1.053053014082719
 30
0
 11
-0.2960307749186638
 21
-1.17329059121522
 31
0
  0
LINE
  8
0
 10
-0.4315418849217992
 20
-1.20316588282974
 30
0
 11
-0.3496671498191888
 21
-1.20316588282974
 31
0
  0
LINE
  8
0
 10
-0.4315418849217992
 20
-1.053053014082719
 30
0
 11
-0.4315418849217992
 21
-1.20316588282974
 31
0
  0
LINE
  8
0
 10
-0.4846671498191887
 20
-1.053053014082719
 30
0
 11
-0.5513418103047759
 21
-1.20316588282974
 31
0
  0
LINE
  8
0
 10
-0.5653488859352825
 20
-1.053053014082719
 30
0
 11
-0.4846671498191887
 21
-1.053053014082719
 31
0
  0
LINE
  8
0
 10
-0.5653488859352825
 20
-1.06874852465171
 30
0
 11
-0.5653488859352825
 21
-1.053053014082719
 31
0
  0
LINE
  8
0
 10
-0.6678464421561973
 20
-1.11350274881322
 30
0
 11
-0.654374507332296
 21
-1.11304607305675
 31
0
  0
LINE
  8
0
 10
-0.6778933088046796
 20
-1.0575599686112
 30
0
 11
-0.6683031179132111
 21
-1.053053014082719
 31
0
  0
LINE
  8
0
 10
-0.6883968512101726
 20
-1.06441010496273
 30
0
 11
-0.6778933088046796
 21
-1.0575599686112
 31
0
  0
LINE
  8
0
 10
-0.6938769602912823
 20
-1.075826998881199
 30
0
 11
-0.6883968512101726
 21
-1.06441010496273
 31
0
  0
LINE
  8
0
 10
-0.6943336360482961
 20
-1.090897298854179
 30
0
 11
-0.6938769602912823
 21
-1.075826998881199
 31
0
  0
LINE
  8
0
 10
-0.6879401754537419
 20
-1.10231419277323
 30
0
 11
-0.6943336360482961
 21
-1.090897298854179
 31
0
  0
LINE
  8
0
 10
-0.6774366330482468
 20
-1.10939266700275
 30
0
 11
-0.6879401754537419
 21
-1.10231419277323
 31
0
  0
LINE
  8
0
 10
-0.6678464421561973
 20
-1.11350274881322
 30
0
 11
-0.6774366330482468
 21
-1.10939266700275
 31
0
  0
LINE
  8
0
 10
-0.6849717830347534
 20
-1.12035288516475
 30
0
 11
-0.6678464421561973
 21
-1.11350274881322
 31
0
  0
LINE
  8
0
 10
-0.6954753254396663
 20
-1.131998116961729
 30
0
 11
-0.6849717830347534
 21
-1.12035288516475
 31
0
  0
LINE
  8
0
 10
-0.7016077148096982
 20
-1.147296754813249
 30
0
 11
-0.6954753254396663
 21
-1.131998116961729
 31
0
  0
LINE
  8
0
 10
-0.7016077148096982
 20
-1.17058721840771
 30
0
 11
-0.7016077148096982
 21
-1.147296754813249
 31
0
  0
LINE
  8
0
 10
-0.6945619739262208
 20
-1.18497250474523
 30
0
 11
-0.7016077148096982
 21
-1.17058721840771
 31
0
  0
LINE
  8
0
 10
-0.6845151072777397
 20
-1.19547604715073
 30
0
 11
-0.6945619739262208
 21
-1.18497250474523
 31
0
  0
LINE
  8
0
 10
-0.6712715103321996
 20
-1.20316588282974
 30
0
 11
-0.6845151072777397
 21
-1.19547604715073
 31
0
  0
LINE
  8
0
 10
-0.6509494391567303
 20
-1.20316588282974
 30
0
 11
-0.6712715103321996
 21
-1.20316588282974
 31
0
  0
LINE
  8
0
 10
-0.6377058422107537
 20
-1.1961610607857
 30
0
 11
-0.6509494391567303
 21
-1.20316588282974
 31
0
  0
LINE
  8
0
 10
-0.6276589755622723
 20
-1.18565751838017
 30
0
 11
-0.6377058422107537
 21
-1.1961610607857
 31
0
  0
LINE
  8
0
 10
-0.6196671498191888
 20
-1.170130542650729
 30
0
 11
-0.6276589755622723
 21
-1.18565751838017
 31
0
  0
LINE
  8
0
 10
-0.6205805013321978
 20
-1.14661174117824
 30
0
 11
-0.6196671498191888
 21
-1.170130542650729
 31
0
  0
LINE
  8
0
 10
-0.6272022998052588
 20
-1.13268313059725
 30
0
 11
-0.6205805013321978
 21
-1.14661174117824
 31
0
  0
LINE
  8
0
 10
-0.6365641528188014
 20
-1.12103789879973
 30
0
 11
-0.6272022998052588
 21
-1.13268313059725
 31
0
  0
LINE
  8
0
 10
-0.654374507332296
 20
-1.11304607305675
 30
0
 11
-0.6365641528188014
 21
-1.12103789879973
 31
0
  0
LINE
  8
0
 10
-0.6427292755347032
 20
-1.10939266700275
 30
0
 11
-0.654374507332296
 21
-1.11304607305675
 31
0
  0
LINE
  8
0
 10
-0.634965787670272
 20
-1.101857517016169
 30
0
 11
-0.6427292755347032
 21
-1.10939266700275
 31
0
  0
LINE
  8
0
 10
-0.6272022998052588
 20
-1.090897298854179
 30
0
 11
-0.634965787670272
 21
-1.101857517016169
 31
0
  0
LINE
  8
0
 10
-0.6269739619271885
 20
-1.076055336759709
 30
0
 11
-0.6272022998052588
 21
-1.090897298854179
 31
0
  0
LINE
  8
0
 10
-0.6338240982781742
 20
-1.06441010496273
 30
0
 11
-0.6269739619271885
 21
-1.076055336759709
 31
0
  0
LINE
  8
0
 10
-0.6438709649268008
 20
-1.057331630732729
 30
0
 11
-0.6338240982781742
 21
-1.06441010496273
 31
0
  0
LINE
  8
0
 10
-0.653689493697212
 20
-1.053053014082719
 30
0
 11
-0.6438709649268008
 21
-1.057331630732729
 31
0
  0
LINE
  8
0
 10
-0.6683031179132111
 20
-1.053053014082719
 30
0
 11
-0.653689493697212
 21
-1.053053014082719
 31
0
  0
LINE
  8
0
 10
-0.754667149819189
 20
-1.053053014082719
 30
0
 11
-0.754667149819189
 21
-1.20316588282974
 31
0
  0
LINE
  8
0
 10
-0.7959615266252247
 20
-1.098445077423199
 30
0
 11
-0.754667149819189
 21
-1.053053014082719
 31
0
  0
LINE
  8
0
 10
-0.864089582751231
 20
-1.128018132364699
 30
0
 11
-0.9179712816341368
 21
-1.128835717499669
 31
0
  0
LINE
  8
0
 10
-0.864089582751231
 20
-1.128018132364699
 30
0
 11
-0.8231197599406466
 21
-1.20316588282974
 31
0
  0
LINE
  8
0
 10
-0.9179712816341368
 20
-1.128835717499669
 30
0
 11
-0.9179712816341368
 21
-1.053053014082719
 31
0
  0
LINE
  8
0
 10
-0.8551909673627693
 20
-1.127883107378249
 30
0
 11
-0.864089582751231
 21
-1.128018132364699
 31
0
  0
LINE
  8
0
 10
-0.8405842788337493
 20
-1.125660350428219
 30
0
 11
-0.8551909673627693
 21
-1.127883107378249
 31
0
  0
LINE
  8
0
 10
-0.8301055674981497
 20
-1.118992079578229
 30
0
 11
-0.8405842788337493
 21
-1.125660350428219
 31
0
  0
LINE
  8
0
 10
-0.8269302004267689
 20
-1.109783515070699
 30
0
 11
-0.8301055674981497
 21
-1.118992079578229
 31
0
  0
LINE
  8
0
 10
-0.8221671498191888
 20
-1.099939877149219
 30
0
 11
-0.8269302004267689
 21
-1.109783515070699
 31
0
  0
LINE
  8
0
 10
-0.822484686526778
 20
-1.083110431670749
 30
0
 11
-0.8221671498191888
 21
-1.099939877149219
 31
0
  0
LINE
  8
0
 10
-0.8313757143267602
 20
-1.064693302656229
 30
0
 11
-0.822484686526778
 21
-1.083110431670749
 31
0
  0
LINE
  8
0
 10
-0.8399492054197352
 20
-1.05802503180621
 30
0
 11
-0.8313757143267602
 21
-1.064693302656229
 31
0
  0
LINE
  8
0
 10
-0.8532857471197083
 20
-1.053053014082719
 30
0
 11
-0.8399492054197352
 21
-1.05802503180621
 31
0
  0
LINE
  8
0
 10
-0.9179712816341368
 20
-1.053053014082719
 30
0
 11
-0.8532857471197083
 21
-1.053053014082719
 31
0
  0
LINE
  8
0
 10
-0.9179712816341368
 20
-1.20316588282974
 30
0
 11
-0.9179712816341368
 21
-1.128835717499669
 31
0
  0
LINE
  8
0
 10
-0.9710069810277951
 20
-1.060645982575259
 30
0
 11
-0.9615376228327392
 21
-1.06811220730567
 31
0
  0
LINE
  8
0
 10
-0.980112133138219
 20
-1.05755023085723
 30
0
 11
-0.9710069810277951
 21
-1.060645982575259
 31
0
  0
LINE
  8
0
 10
-0.9979582312757432
 20
-1.053053014082719
 30
0
 11
-0.980112133138219
 21
-1.05755023085723
 31
0
  0
LINE
  8
0
 10
-1.011615959441743
 20
-1.053053014082719
 30
0
 11
-0.9979582312757432
 21
-1.053053014082719
 31
0
  0
LINE
  8
0
 10
-1.034743045803234
 20
-1.060828085617169
 30
0
 11
-1.011615959441743
 21
-1.053053014082719
 31
0
  0
LINE
  8
0
 10
-1.045669228336238
 20
-1.06847641339023
 30
0
 11
-1.034743045803234
 21
-1.060828085617169
 31
0
  0
LINE
  8
0
 10
-1.048400773969234
 20
-1.07976680200772
 30
0
 11
-1.045669228336238
 21
-1.06847641339023
 31
0
  0
LINE
  8
0
 10
-1.048947083095746
 20
-1.08814354194975
 30
0
 11
-1.048400773969234
 21
-1.07976680200772
 31
0
  0
LINE
  8
0
 10
-1.045305022251751
 20
-1.098523415355699
 30
0
 11
-1.048947083095746
 21
-1.08814354194975
 31
0
  0
LINE
  8
0
 10
-1.036381973183207
 20
-1.104897021833199
 30
0
 11
-1.045305022251751
 21
-1.098523415355699
 31
0
  0
LINE
  8
0
 10
-0.9781089996741966
 20
-1.132394581207729
 30
0
 11
-1.036381973183207
 21
-1.104897021833199
 31
0
  0
LINE
  8
0
 10
-0.9682754353946537
 20
-1.139678702896739
 30
0
 11
-0.9781089996741966
 21
-1.132394581207729
 31
0
  0
LINE
  8
0
 10
-0.9613555197902777
 20
-1.15060488542924
 30
0
 11
-0.9682754353946537
 21
-1.139678702896739
 31
0
  0
LINE
  8
0
 10
-0.9580776650301865
 20
-1.16153106796224
 30
0
 11
-0.9613555197902777
 21
-1.15060488542924
 31
0
  0
LINE
  8
0
 10
-0.9571671498191888
 20
-1.17027201398876
 30
0
 11
-0.9580776650301865
 21
-1.16153106796224
 31
0
  0
LINE
  8
0
 10
-0.9609913137057909
 20
-1.18010557826823
 30
0
 11
-0.9571671498191888
 21
-1.17027201398876
 31
0
  0
LINE
  8
0
 10
-0.9671828171411933
 20
-1.19194227601223
 30
0
 11
-0.9609913137057909
 21
-1.18010557826823
 31
0
  0
LINE
  8
0
 10
-0.9773805875052231
 20
-1.199226397700729
 30
0
 11
-0.9671828171411933
 21
-1.19194227601223
 31
0
  0
LINE
  8
0
 10
-0.9937698613046543
 20
-1.20316588282974
 30
0
 11
-0.9773805875052231
 21
-1.199226397700729
 31
0
  0
LINE
  8
0
 10
-1.015440123328199
 20
-1.20316588282974
 30
0
 11
-0.9937698613046543
 21
-1.20316588282974
 31
0
  0
LINE
  8
0
 10
-1.031283088001265
 20
-1.199590603785249
 30
0
 11
-1.015440123328199
 21
-1.20316588282974
 31
0
  0
LINE
  8
0
 10
-1.045305022251751
 20
-1.192488585138741
 30
0
 11
-1.031283088001265
 21
-1.199590603785249
 31
0
  0
LINE
  8
0
 10
-1.052362973906757
 20
-1.18447605128123
 30
0
 11
-1.045305022251751
 21
-1.192488585138741
 31
0
  0
LINE
  8
0
 10
-1.186252588215184
 20
-1.20316588282974
 30
0
 11
-1.092167149819189
 21
-1.20316588282974
 31
0
  0
LINE
  8
0
 10
-1.092167149819189
 20
-1.053053014082719
 30
0
 11
-1.186252588215184
 21
-1.20316588282974
 31
0
  0
LINE
  8
0
 10
-1.186252588215184
 20
-1.053053014082719
 30
0
 11
-1.092167149819189
 21
-1.053053014082719
 31
0
  0
LINE
  8
0
 10
0.8212909277624713
 20
-1.317684386935289
 30
0
 11
0.8218998365264377
 21
-1.25454153435101
 31
0
  0
LINE
  8
0
 10
0.8218998365264377
 20
-1.25454153435101
 30
0
 11
0.8578254535544112
 21
-1.25454153435101
 31
0
  0
LINE
  8
0
 10
0.8578254535544112
 20
-1.25454153435101
 30
0
 11
0.8643204803624686
 21
-1.257725679747709
 31
0
  0
LINE
  8
0
 10
0.8643204803624686
 20
-1.257725679747709
 30
0
 11
0.8677709633534687
 21
-1.26158210191479
 31
0
  0
LINE
  8
0
 10
0.8677709633534687
 20
-1.26158210191479
 30
0
 11
0.8704095679934397
 21
-1.266250402432619
 31
0
  0
LINE
  8
0
 10
0.8704095679934397
 20
-1.266250402432619
 30
0
 11
0.8708155071704385
 21
-1.317684386935289
 31
0
  0
LINE
  8
0
 10
0.7898155071704386
 20
-1.317684386935289
 30
0
 11
0.7599044009234495
 21
-1.317684386935289
 31
0
  0
LINE
  8
0
 10
0.7599044009234495
 20
-1.317684386935289
 30
0
 11
0.7516037111504593
 21
-1.315303777593379
 31
0
  0
LINE
  8
0
 10
0.7516037111504593
 20
-1.315303777593379
 30
0
 11
0.7467377895614883
 21
-1.312584586116449
 31
0
  0
LINE
  8
0
 10
0.7467377895614883
 20
-1.312584586116449
 30
0
 11
0.744018598084469
 21
-1.308291125889689
 31
0
  0
LINE
  8
0
 10
0.744018598084469
 20
-1.308291125889689
 30
0
 11
0.7412994066044811
 21
-1.299131744072231
 31
0
  0
LINE
  8
0
 10
0.7412994066044811
 20
-1.299131744072231
 30
0
 11
0.7412994066044811
 21
-1.27251229066512
 31
0
  0
LINE
  8
0
 10
0.7412994066044811
 20
-1.27251229066512
 30
0
 11
0.7437323674005311
 21
-1.26306667816598
 31
0
  0
LINE
  8
0
 10
0.7437323674005311
 20
-1.26306667816598
 30
0
 11
0.7475964816044907
 21
-1.259345679302529
 31
0
  0
LINE
  8
0
 10
0.7475964816044907
 20
-1.259345679302529
 30
0
 11
0.7514605958085303
 21
-1.256483372484739
 31
0
  0
LINE
  8
0
 10
0.7514605958085303
 20
-1.256483372484739
 30
0
 11
0.7593319395585385
 21
-1.25454153435101
 31
0
  0
LINE
  8
0
 10
0.7593319395585385
 20
-1.25454153435101
 30
0
 11
0.7719260895584702
 21
-1.25454153435101
 31
0
  0
LINE
  8
0
 10
0.7719260895584702
 20
-1.25454153435101
 30
0
 11
0.7793680872855002
 21
-1.256483372484739
 31
0
  0
LINE
  8
0
 10
0.7793680872855002
 20
-1.256483372484739
 30
0
 11
0.7842340088745585
 21
-1.25963190998442
 31
0
  0
LINE
  8
0
 10
0.7842340088745585
 20
-1.25963190998442
 30
0
 11
0.78824123842052
 21
-1.2639253702114
 31
0
  0
LINE
  8
0
 10
0.78824123842052
 20
-1.2639253702114
 30
0
 11
0.7898155071704386
 21
-1.272369175324309
 31
0
  0
LINE
  8
0
 10
0.7898155071704386
 20
-1.272369175324309
 30
0
 11
0.7898155071704386
 21
-1.28596513270962
 31
0
  0
LINE
  8
0
 10
0.7898155071704386
 20
-1.28596513270962
 30
0
 11
0.7412994066044811
 21
-1.28610824805037
 31
0
  0
LINE
  8
0
 10
0.7088155071704386
 20
-1.22786030430521
 30
0
 11
0.7039495855814785
 21
-1.2277171889644
 31
0
  0
LINE
  8
0
 10
0.7039495855814785
 20
-1.2277171889644
 30
0
 11
0.6989405486504984
 21
-1.22943457305519
 31
0
  0
LINE
  8
0
 10
0.6989405486504984
 20
-1.22943457305519
 30
0
 11
0.6947902037624301
 21
-1.23458672532735
 31
0
  0
LINE
  8
0
 10
0.6947902037624301
 20
-1.23458672532735
 30
0
 11
0.6925003583084798
 21
-1.243030530440239
 31
0
  0
LINE
  8
0
 10
0.6925003583084798
 20
-1.243030530440239
 30
0
 11
0.6926434736504889
 21
-1.317684386935289
 31
0
  0
LINE
  8
0
 10
0.6843427838774114
 20
-1.25905944862089
 30
0
 11
0.7083861611474603
 21
-1.25905944862089
 31
0
  0
LINE
  8
0
 10
0.6683155071704385
 20
-1.25454153435101
 30
0
 11
0.6683155071704385
 21
-1.317684386935289
 31
0
  0
LINE
  8
0
 10
0.6193911465104501
 20
-1.25454153435101
 30
0
 11
0.6193911465104501
 21
-1.30007384726049
 31
0
  0
LINE
  8
0
 10
0.6193911465104501
 20
-1.30007384726049
 30
0
 11
0.6219437218514395
 21
-1.30922057555743
 31
0
  0
LINE
  8
0
 10
0.6219437218514395
 20
-1.30922057555743
 30
0
 11
0.6251344410224592
 21
-1.3134748677883
 31
0
  0
LINE
  8
0
 10
0.6251344410224592
 20
-1.3134748677883
 30
0
 11
0.6302395917014691
 21
-1.315176584680919
 31
0
  0
LINE
  8
0
 10
0.6302395917014691
 20
-1.315176584680919
 30
0
 11
0.6374718884924186
 21
-1.317684386935289
 31
0
  0
LINE
  8
0
 10
0.6374718884924186
 20
-1.317684386935289
 30
0
 11
0.6683155071704385
 21
-1.317684386935289
 31
0
  0
LINE
  8
0
 10
0.5672850481303612
 20
-1.25454153435101
 30
0
 11
0.5873155071704388
 21
-1.25454153435101
 31
0
  0
LINE
  8
0
 10
0.5748132743474089
 20
-1.317684386935289
 30
0
 11
0.5748132743474089
 21
-1.227408365515299
 31
0
  0
LINE
  8
0
 10
0.4976131715414412
 20
-1.304303819013439
 30
0
 11
0.5020494477044413
 21
-1.31129431478621
 31
0
  0
LINE
  8
0
 10
0.5020494477044413
 20
-1.31129431478621
 30
0
 11
0.5080989151994981
 21
-1.315730590949519
 31
0
  0
LINE
  8
0
 10
0.5080989151994981
 20
-1.315730590949519
 30
0
 11
0.5176436305815187
 21
-1.317684386935289
 31
0
  0
LINE
  8
0
 10
0.5176436305815187
 20
-1.317684386935289
 30
0
 11
0.5269194807405184
 21
-1.317684386935289
 31
0
  0
LINE
  8
0
 10
0.5269194807405184
 20
-1.317684386935289
 30
0
 11
0.5347165721804885
 21
-1.31559615833834
 31
0
  0
LINE
  8
0
 10
0.5347165721804885
 20
-1.31559615833834
 30
0
 11
0.5410349048984791
 21
-1.310622151731101
 31
0
  0
LINE
  8
0
 10
0.5410349048984791
 20
-1.310622151731101
 30
0
 11
0.5445301527824595
 21
-1.30645474078965
 31
0
  0
LINE
  8
0
 10
0.5445301527824595
 20
-1.30645474078965
 30
0
 11
0.546143344114429
 21
-1.30201846462629
 31
0
  0
LINE
  8
0
 10
0.546143344114429
 20
-1.30201846462629
 30
0
 11
0.5468155071704387
 21
-1.29771662107392
 31
0
  0
LINE
  8
0
 10
0.5468155071704387
 20
-1.29771662107392
 30
0
 11
0.5438579897295094
 21
-1.292608181855499
 31
0
  0
LINE
  8
0
 10
0.5438579897295094
 20
-1.292608181855499
 30
0
 11
0.5396905787864708
 21
-1.291129423134409
 31
0
  0
LINE
  8
0
 10
0.5396905787864708
 20
-1.291129423134409
 30
0
 11
0.5035282064264284
 21
-1.28145027514178
 31
0
  0
LINE
  8
0
 10
0.5035282064264284
 20
-1.28145027514178
 30
0
 11
0.4994952280965081
 21
-1.279568218587739
 31
0
  0
LINE
  8
0
 10
0.4994952280965081
 20
-1.279568218587739
 30
0
 11
0.4973443063184205
 21
-1.27486307720235
 31
0
  0
LINE
  8
0
 10
0.4973443063184205
 20
-1.27486307720235
 30
0
 11
0.4976131715414412
 21
-1.269889070594789
 31
0
  0
LINE
  8
0
 10
0.4976131715414412
 20
-1.269889070594789
 30
0
 11
0.5000329585394794
 21
-1.26531836182062
 31
0
  0
LINE
  8
0
 10
0.5000329585394794
 20
-1.26531836182062
 30
0
 11
0.5044692347024792
 21
-1.26101651826819
 31
0
  0
LINE
  8
0
 10
0.5044692347024792
 20
-1.26101651826819
 30
0
 11
0.509577673921489
 21
-1.25671467471584
 31
0
  0
LINE
  8
0
 10
0.509577673921489
 20
-1.25671467471584
 30
0
 11
0.5187190914704297
 21
-1.25454153435101
 31
0
  0
LINE
  8
0
 10
0.5187190914704297
 20
-1.25454153435101
 30
0
 11
0.5263817502974598
 21
-1.25454153435101
 31
0
  0
LINE
  8
0
 10
0.5263817502974598
 20
-1.25454153435101
 30
0
 11
0.5359264656794694
 21
-1.25671467471584
 31
0
  0
LINE
  8
0
 10
0.5359264656794694
 20
-1.25671467471584
 30
0
 11
0.541975933174439
 21
-1.261285383490309
 31
0
  0
LINE
  8
0
 10
0.541975933174439
 20
-1.261285383490309
 30
0
 11
0.546277776727471
 21
-1.268141446651589
 31
0
  0
LINE
  8
0
 10
0.4170133554494714
 20
-1.25454153435101
 30
0
 11
0.4652918789324904
 21
-1.25454153435101
 31
0
  0
LINE
  8
0
 10
0.4652918789324904
 20
-1.25454153435101
 30
0
 11
0.4171180810964287
 21
-1.317684386935289
 31
0
  0
LINE
  8
0
 10
0.4171180810964287
 20
-1.317684386935289
 30
0
 11
0.4658155071704386
 21
-1.317684386935289
 31
0
  0
LINE
  8
0
 10
0.3518387346584494
 20
-1.227745975968999
 30
0
 11
0.351573040177478
 21
-1.30346890262829
 31
0
  0
LINE
  8
0
 10
0.351573040177478
 20
-1.30346890262829
 30
0
 11
0.3544956794534083
 21
-1.315425154206079
 31
0
  0
LINE
  8
0
 10
0.3544956794534083
 20
-1.315425154206079
 30
0
 11
0.35821540216649
 21
-1.317684386935289
 31
0
  0
LINE
  8
0
 10
0.35821540216649
 20
-1.317684386935289
 30
0
 11
0.3595557691904395
 21
-1.317684386935289
 31
0
  0
LINE
  8
0
 10
0.2731048764075203
 20
-1.317684386935289
 30
0
 11
0.2854098092714993
 21
-1.317684386935289
 31
0
  0
LINE
  8
0
 10
0.2854098092714993
 20
-1.317684386935289
 30
0
 11
0.2934752274524799
 21
-1.31532962765262
 31
0
  0
LINE
  8
0
 10
0.2934752274524799
 20
-1.31532962765262
 30
0
 11
0.2970943253534605
 21
-1.31274455772309
 31
0
  0
LINE
  8
0
 10
0.2970943253534605
 20
-1.31274455772309
 30
0
 11
0.3015406456334604
 21
-1.308401640241289
 31
0
  0
LINE
  8
0
 10
0.3015406456334604
 20
-1.308401640241289
 30
0
 11
0.3038155071704386
 21
-1.29971580527769
 31
0
  0
LINE
  8
0
 10
0.3038155071704386
 20
-1.29971580527769
 30
0
 11
0.3036087015764896
 21
-1.2724174668205
 31
0
  0
LINE
  8
0
 10
0.3036087015764896
 20
-1.2724174668205
 30
0
 11
0.3017474512274894
 21
-1.263835034654219
 31
0
  0
LINE
  8
0
 10
0.3017474512274894
 20
-1.263835034654219
 30
0
 11
0.2969909225565388
 21
-1.258768297592209
 31
0
  0
LINE
  8
0
 10
0.2969909225565388
 20
-1.258768297592209
 30
0
 11
0.2927514078735403
 21
-1.25670024164831
 31
0
  0
LINE
  8
0
 10
0.2927514078735403
 20
-1.25670024164831
 30
0
 11
0.2848927952865088
 21
-1.25454153435101
 31
0
  0
LINE
  8
0
 10
0.2848927952865088
 20
-1.25454153435101
 30
0
 11
0.2726912652194589
 21
-1.25454153435101
 31
0
  0
LINE
  8
0
 10
0.2726912652194589
 20
-1.25454153435101
 30
0
 11
0.2652462638204888
 21
-1.256907047242599
 31
0
  0
LINE
  8
0
 10
0.2652462638204888
 20
-1.256907047242599
 30
0
 11
0.2609033463404812
 21
-1.25928531157808
 31
0
  0
LINE
  8
0
 10
0.2609033463404812
 20
-1.25928531157808
 30
0
 11
0.2570774428424884
 21
-1.26362822905991
 31
0
  0
LINE
  8
0
 10
0.2570774428424884
 20
-1.26362822905991
 30
0
 11
0.254699178508501
 21
-1.27221066122619
 31
0
  0
LINE
  8
0
 10
0.254699178508501
 20
-1.27221066122619
 30
0
 11
0.254699178508501
 21
-1.29950899968339
 31
0
  0
LINE
  8
0
 10
0.254699178508501
 20
-1.29950899968339
 30
0
 11
0.2567672344515303
 21
-1.308711848632909
 31
0
  0
LINE
  8
0
 10
0.2567672344515303
 20
-1.308711848632909
 30
0
 11
0.2606965407434799
 21
-1.313261571709019
 31
0
  0
LINE
  8
0
 10
0.2606965407434799
 20
-1.313261571709019
 30
0
 11
0.2655564722114504
 21
-1.3156398360442
 31
0
  0
LINE
  8
0
 10
0.2655564722114504
 20
-1.3156398360442
 30
0
 11
0.2731048764075203
 21
-1.317684386935289
 31
0
  0
LINE
  8
0
 10
0.1660181625773112
 20
-1.317684386935289
 30
0
 11
0.1660181625773112
 21
-1.26845254227128
 31
0
  0
LINE
  8
0
 10
0.2228155071704386
 20
-1.227616665687079
 30
0
 11
0.2228155071704386
 21
-1.26845254227128
 31
0
  0
LINE
  8
0
 10
0.1660181625773112
 20
-1.317684386935289
 30
0
 11
0.1660181625773112
 21
-1.26845254227128
 31
0
  0
LINE
  8
0
 10
0.1660181625773112
 20
-1.26845254227128
 30
0
 11
0.2228155071704386
 21
-1.26845254227128
 31
0
  0
LINE
  8
0
 10
0.1660181625773112
 20
-1.26845254227128
 30
0
 11
0.1660181625773112
 21
-1.227616665687079
 31
0
  0
LINE
  8
0
 10
0.1660181625773112
 20
-1.26845254227128
 30
0
 11
0.1660181625773112
 21
-1.227616665687079
 31
0
  0
LINE
  8
0
 10
0.2228155071704386
 20
-1.26845254227128
 30
0
 11
0.2228155071704386
 21
-1.317684386935289
 31
0
  0
LINE
  8
0
 10
0.06081550717043865
 20
-1.22747804917965
 30
0
 11
0.06081550717043865
 21
-1.23223435737519
 31
0
  0
LINE
  8
0
 10
0.06039583291639065
 20
-1.317684386935289
 30
0
 11
0.06039583291639065
 21
-1.25454153435101
 31
0
  0
LINE
  8
0
 10
0.03381550717043865
 20
-1.317684386935289
 30
0
 11
0.003904400923449429
 21
-1.317684386935289
 31
0
  0
LINE
  8
0
 10
0.003904400923449429
 20
-1.317684386935289
 30
0
 11
-0.004396288849540723
 21
-1.315303777593379
 31
0
  0
LINE
  8
0
 10
-0.004396288849540723
 20
-1.315303777593379
 30
0
 11
-0.009262210438511829
 21
-1.312584586116449
 31
0
  0
LINE
  8
0
 10
-0.009262210438511829
 20
-1.312584586116449
 30
0
 11
-0.01198140191553011
 21
-1.308291125889689
 31
0
  0
LINE
  8
0
 10
-0.01198140191553011
 20
-1.308291125889689
 30
0
 11
-0.01470059339551881
 21
-1.299131744072231
 31
0
  0
LINE
  8
0
 10
-0.01470059339551881
 20
-1.299131744072231
 30
0
 11
-0.01470059339551881
 21
-1.27251229066512
 31
0
  0
LINE
  8
0
 10
-0.01470059339551881
 20
-1.27251229066512
 30
0
 11
-0.01226763259946892
 21
-1.26306667816598
 31
0
  0
LINE
  8
0
 10
-0.01226763259946892
 20
-1.26306667816598
 30
0
 11
-0.008403518395509312
 21
-1.259345679302529
 31
0
  0
LINE
  8
0
 10
-0.008403518395509312
 20
-1.259345679302529
 30
0
 11
-0.004539404191469657
 21
-1.256483372484739
 31
0
  0
LINE
  8
0
 10
-0.004539404191469657
 20
-1.256483372484739
 30
0
 11
0.003331939558538578
 21
-1.25454153435101
 31
0
  0
LINE
  8
0
 10
0.003331939558538578
 20
-1.25454153435101
 30
0
 11
0.01592608955847027
 21
-1.25454153435101
 31
0
  0
LINE
  8
0
 10
0.01592608955847027
 20
-1.25454153435101
 30
0
 11
0.02336808728550022
 21
-1.256483372484739
 31
0
  0
LINE
  8
0
 10
0.02336808728550022
 20
-1.256483372484739
 30
0
 11
0.02823400887455864
 21
-1.25963190998442
 31
0
  0
LINE
  8
0
 10
0.02823400887455864
 20
-1.25963190998442
 30
0
 11
0.03224123842052086
 21
-1.2639253702114
 31
0
  0
LINE
  8
0
 10
0.03224123842052086
 20
-1.2639253702114
 30
0
 11
0.03381550717043865
 21
-1.272369175324309
 31
0
  0
LINE
  8
0
 10
0.03381550717043865
 20
-1.272369175324309
 30
0
 11
0.03381550717043865
 21
-1.28596513270962
 31
0
  0
LINE
  8
0
 10
0.03381550717043865
 20
-1.28596513270962
 30
0
 11
-0.01470059339551881
 21
-1.28610824805037
 31
0
  0
LINE
  8
0
 10
-0.09627305475763934
 20
-1.227287842941989
 30
0
 11
-0.09584370873465015
 21
-1.317684386935289
 31
0
  0
LINE
  8
0
 10
-0.09584370873465015
 20
-1.317684386935289
 30
0
 11
-0.065503256464679
 21
-1.317684386935289
 31
0
  0
LINE
  8
0
 10
-0.065503256464679
 20
-1.317684386935289
 30
0
 11
-0.05734568203064919
 21
-1.315303777594019
 31
0
  0
LINE
  8
0
 10
-0.05734568203064919
 20
-1.315303777594019
 30
0
 11
-0.05405402919160042
 21
-1.313013932139689
 31
0
  0
LINE
  8
0
 10
-0.05405402919160042
 20
-1.313013932139689
 30
0
 11
-0.04918810759966074
 21
-1.308720471912709
 31
0
  0
LINE
  8
0
 10
-0.04918810759966074
 20
-1.308720471912709
 30
0
 11
-0.04718449282956134
 21
-1.29970420543603
 31
0
  0
LINE
  8
0
 10
-0.04718449282956134
 20
-1.29970420543603
 30
0
 11
-0.04718449282956134
 21
-1.272226059983799
 31
0
  0
LINE
  8
0
 10
-0.04718449282956134
 20
-1.272226059983799
 30
0
 11
-0.0501899149876408
 21
-1.263352908848199
 31
0
  0
LINE
  8
0
 10
-0.0501899149876408
 20
-1.263352908848199
 30
0
 11
-0.05348156782659862
 21
-1.25920256396205
 31
0
  0
LINE
  8
0
 10
-0.05348156782659862
 20
-1.25920256396205
 30
0
 11
-0.05791814339564098
 21
-1.2569127185077
 31
0
  0
LINE
  8
0
 10
-0.05791814339564098
 20
-1.2569127185077
 30
0
 11
-0.0649307950996008
 21
-1.25454153435101
 31
0
  0
LINE
  8
0
 10
-0.0649307950996008
 20
-1.25454153435101
 30
0
 11
-0.09614361104768976
 21
-1.25454153435101
 31
0
  0
LINE
  8
0
 10
-0.2666248861605901
 20
-1.317684386935289
 30
0
 11
-0.265813007809561
 21
-1.25454153435101
 31
0
  0
LINE
  8
0
 10
-0.265813007809561
 20
-1.25454153435101
 30
0
 11
-0.2217686072715588
 21
-1.25454153435101
 31
0
  0
LINE
  8
0
 10
-0.2217686072715588
 20
-1.25454153435101
 30
0
 11
-0.2156795196375314
 21
-1.25671083180912
 31
0
  0
LINE
  8
0
 10
-0.2156795196375314
 20
-1.25671083180912
 30
0
 11
-0.212432006233591
 21
-1.260364284388339
 31
0
  0
LINE
  8
0
 10
-0.212432006233591
 20
-1.260364284388339
 30
0
 11
-0.2091844928295614
 21
-1.26543852408163
 31
0
  0
LINE
  8
0
 10
-0.2091844928295614
 20
-1.26543852408163
 30
0
 11
-0.2091844928295614
 21
-1.317684386935289
 31
0
  0
LINE
  8
0
 10
-0.2382091438755306
 20
-1.317684386935289
 30
0
 11
-0.2382091438755306
 21
-1.25454153435101
 31
0
  0
LINE
  8
0
 10
-0.2903276081685218
 20
-1.25454153435101
 30
0
 11
-0.3206680604385803
 21
-1.25454153435101
 31
0
  0
LINE
  8
0
 10
-0.3206680604385803
 20
-1.25454153435101
 30
0
 11
-0.3285394041885912
 21
-1.256483372485
 31
0
  0
LINE
  8
0
 10
-0.3285394041885912
 20
-1.256483372485
 30
0
 11
-0.3329759797575389
 21
-1.25863010259849
 31
0
  0
LINE
  8
0
 10
-0.3329759797575389
 20
-1.25863010259849
 30
0
 11
-0.3369832093035912
 21
-1.263496024189009
 31
0
  0
LINE
  8
0
 10
-0.3369832093035912
 20
-1.263496024189009
 30
0
 11
-0.3388437087345711
 21
-1.272082944642689
 31
0
  0
LINE
  8
0
 10
-0.3388437087345711
 20
-1.272082944642689
 30
0
 11
-0.3388437087345711
 21
-1.29984732077684
 31
0
  0
LINE
  8
0
 10
-0.3388437087345711
 20
-1.29984732077684
 30
0
 11
-0.3368400939615821
 21
-1.309006702594339
 31
0
  0
LINE
  8
0
 10
-0.3368400939615821
 20
-1.309006702594339
 30
0
 11
-0.3328328644156101
 21
-1.313300162821339
 31
0
  0
LINE
  8
0
 10
-0.3328328644156101
 20
-1.313300162821339
 30
0
 11
-0.3285394041885912
 21
-1.31573312361641
 31
0
  0
LINE
  8
0
 10
-0.3285394041885912
 20
-1.31573312361641
 30
0
 11
-0.3212405218035702
 21
-1.317684386935289
 31
0
  0
LINE
  8
0
 10
-0.3212405218035702
 20
-1.317684386935289
 30
0
 11
-0.2901844928295614
 21
-1.317684386935289
 31
0
  0
LINE
  8
0
 10
-0.5011464220899617
 20
-1.227616665687079
 30
0
 11
-0.4706378787564318
 21
-1.227616665687079
 31
0
  0
LINE
  8
0
 10
-0.4706378787564318
 20
-1.227616665687079
 30
0
 11
-0.4608519922800916
 21
-1.230387187500379
 31
0
  0
LINE
  8
0
 10
-0.4608519922800916
 20
-1.230387187500379
 30
0
 11
-0.4547008636377395
 21
-1.234441340469089
 31
0
  0
LINE
  8
0
 10
-0.4547008636377395
 20
-1.234441340469089
 30
0
 11
-0.4521844928295613
 21
-1.240452670733199
 31
0
  0
LINE
  8
0
 10
-0.4521844928295613
 20
-1.240452670733199
 30
0
 11
-0.4523242912077513
 21
-1.24814158153598
 31
0
  0
LINE
  8
0
 10
-0.4523242912077513
 20
-1.24814158153598
 30
0
 11
-0.4544212668813599
 21
-1.25443250855648
 31
0
  0
LINE
  8
0
 10
-0.4544212668813599
 20
-1.25443250855648
 30
0
 11
-0.4586152182283004
 21
-1.259605048551379
 31
0
  0
LINE
  8
0
 10
-0.4586152182283004
 20
-1.259605048551379
 30
0
 11
-0.4679817095700592
 21
-1.263379604763679
 31
0
  0
LINE
  8
0
 10
-0.4679817095700592
 20
-1.263379604763679
 30
0
 11
-0.4890912646836514
 21
-1.263798999898279
 31
0
  0
LINE
  8
0
 10
-0.4679817095700592
 20
-1.263379604763679
 30
0
 11
-0.4609917906582816
 21
-1.265756177193689
 31
0
  0
LINE
  8
0
 10
-0.4609917906582816
 20
-1.265756177193689
 30
0
 11
-0.4565182425549602
 21
-1.270509322053669
 31
0
  0
LINE
  8
0
 10
-0.4565182425549602
 20
-1.270509322053669
 30
0
 11
-0.4541416701249701
 21
-1.275542063670049
 31
0
  0
LINE
  8
0
 10
-0.4541416701249701
 20
-1.275542063670049
 30
0
 11
-0.4523242912077513
 21
-1.283650369607789
 31
0
  0
LINE
  8
0
 10
-0.4523242912077513
 20
-1.283650369607789
 30
0
 11
-0.4523242912077513
 21
-1.29553323175747
 31
0
  0
LINE
  8
0
 10
-0.4523242912077513
 20
-1.29553323175747
 30
0
 11
-0.4549804603941303
 21
-1.30336194093879
 31
0
  0
LINE
  8
0
 10
-0.4549804603941303
 20
-1.30336194093879
 30
0
 11
-0.4587550166067521
 21
-1.310911053363379
 31
0
  0
LINE
  8
0
 10
-0.4587550166067521
 20
-1.310911053363379
 30
0
 11
-0.4646265484923607
 21
-1.315244803088799
 31
0
  0
LINE
  8
0
 10
-0.4646265484923607
 20
-1.315244803088799
 30
0
 11
-0.4706378787564318
 21
-1.317684386935289
 31
0
  0
LINE
  8
0
 10
-0.4706378787564318
 20
-1.317684386935289
 30
0
 11
-0.5011464220899617
 21
-1.317684386935289
 31
0
  0
LINE
  8
0
 10
-0.5815935344992212
 20
-1.23703397202847
 30
0
 11
-0.5815935344992212
 21
-1.227616665687079
 31
0
  0
LINE
  8
0
 10
-0.5815935344992212
 20
-1.227616665687079
 30
0
 11
-0.5331844928295614
 21
-1.227616665687079
 31
0
  0
LINE
  8
0
 10
-0.5331844928295614
 20
-1.227616665687079
 30
0
 11
-0.5731892891209101
 21
-1.317684386935289
 31
0
  0
LINE
  8
0
 10
-0.6973444928295612
 20
-1.317684386935289
 30
0
 11
-0.6951844928295614
 21
-1.317684386935289
 31
0
  0
LINE
  8
0
 10
-0.6951844928295614
 20
-1.317684386935289
 30
0
 11
-0.6951844928295614
 21
-1.315524386935289
 31
0
  0
LINE
  8
0
 10
-0.6951844928295614
 20
-1.315524386935289
 30
0
 11
-0.6973444928295612
 21
-1.315524386935289
 31
0
  0
LINE
  8
0
 10
-0.6973444928295612
 20
-1.315524386935289
 30
0
 11
-0.6973444928295612
 21
-1.317684386935289
 31
0
  0
LINE
  8
0
 10
-0.69672029106009
 20
-1.31703029038364
 30
0
 11
-0.6956202087630701
 21
-1.31703029038364
 31
0
  0
LINE
  8
0
 10
-0.6956202087630701
 20
-1.31703029038364
 30
0
 11
-0.6956202087630701
 21
-1.31613022305041
 31
0
  0
LINE
  8
0
 10
-0.6956202087630701
 20
-1.31613022305041
 30
0
 11
-0.69672029106009
 21
-1.31613022305041
 31
0
  0
LINE
  8
0
 10
-0.69672029106009
 20
-1.31613022305041
 30
0
 11
-0.69672029106009
 21
-1.31703029038364
 31
0
  0
LINE
  8
0
 10
-0.7221844928295613
 20
-1.317684386935289
 30
0
 11
-0.7241091284295399
 21
-1.317684386935289
 31
0
  0
LINE
  8
0
 10
-0.7241091284295399
 20
-1.317684386935289
 30
0
 11
-0.7261818129225394
 21
-1.315241580211619
 31
0
  0
LINE
  8
0
 10
-0.7261818129225394
 20
-1.315241580211619
 30
0
 11
-0.7261494942441497
 21
-1.301990922078099
 31
0
  0
LINE
  8
0
 10
-0.7260337640295221
 20
-1.25454153435101
 30
0
 11
-0.7563097625145021
 21
-1.25454153435101
 31
0
  0
LINE
  8
0
 10
-0.7563097625145021
 20
-1.25454153435101
 30
0
 11
-0.7646745249315382
 21
-1.25676226773612
 31
0
  0
LINE
  8
0
 10
-0.7646745249315382
 20
-1.25676226773612
 30
0
 11
-0.7705964806245902
 21
-1.26135178339871
 31
0
  0
LINE
  8
0
 10
-0.7705964806245902
 20
-1.26135178339871
 30
0
 11
-0.7747418496106002
 21
-1.270160692493189
 31
0
  0
LINE
  8
0
 10
-0.7747418496106002
 20
-1.270160692493189
 30
0
 11
-0.7746678251655722
 21
-1.30191717990074
 31
0
  0
LINE
  8
0
 10
-0.7746678251655722
 20
-1.30191717990074
 30
0
 11
-0.7708185539625592
 21
-1.310726088995219
 31
0
  0
LINE
  8
0
 10
-0.7708185539625592
 20
-1.310726088995219
 30
0
 11
-0.7646745249315382
 21
-1.31531560465781
 31
0
  0
LINE
  8
0
 10
-0.7646745249315382
 20
-1.31531560465781
 30
0
 11
-0.7564578114045618
 21
-1.317684386935289
 31
0
  0
LINE
  8
0
 10
-0.7564578114045618
 20
-1.317684386935289
 30
0
 11
-0.7443918266805813
 21
-1.317684386935289
 31
0
  0
LINE
  8
0
 10
-0.7443918266805813
 20
-1.317684386935289
 30
0
 11
-0.7361751131536004
 21
-1.315389629103989
 31
0
  0
LINE
  8
0
 10
-0.7361751131536004
 20
-1.315389629103989
 30
0
 11
-0.7302531574605492
 21
-1.311022186779739
 31
0
  0
LINE
  8
0
 10
-0.7302531574605492
 20
-1.311022186779739
 30
0
 11
-0.7261494942441497
 21
-1.301990922078099
 31
0
  0
LINE
  8
0
 10
-0.7261494942441497
 20
-1.301990922078099
 30
0
 11
-0.7260337640295221
 21
-1.25454153435101
 31
0
  0
LINE
  8
0
 10
-0.8033276081685218
 20
-1.25454153435101
 30
0
 11
-0.8336680604385803
 21
-1.25454153435101
 31
0
  0
LINE
  8
0
 10
-0.8336680604385803
 20
-1.25454153435101
 30
0
 11
-0.8415394041885911
 21
-1.256483372485
 31
0
  0
LINE
  8
0
 10
-0.8415394041885911
 20
-1.256483372485
 30
0
 11
-0.8459759797575389
 21
-1.25863010259849
 31
0
  0
LINE
  8
0
 10
-0.8459759797575389
 20
-1.25863010259849
 30
0
 11
-0.8499832093035913
 21
-1.263496024189009
 31
0
  0
LINE
  8
0
 10
-0.8499832093035913
 20
-1.263496024189009
 30
0
 11
-0.851843708734571
 21
-1.272082944642689
 31
0
  0
LINE
  8
0
 10
-0.851843708734571
 20
-1.272082944642689
 30
0
 11
-0.851843708734571
 21
-1.29984732077684
 31
0
  0
LINE
  8
0
 10
-0.851843708734571
 20
-1.29984732077684
 30
0
 11
-0.8498400939615821
 21
-1.309006702594339
 31
0
  0
LINE
  8
0
 10
-0.8498400939615821
 20
-1.309006702594339
 30
0
 11
-0.84583286441561
 21
-1.313300162821339
 31
0
  0
LINE
  8
0
 10
-0.84583286441561
 20
-1.313300162821339
 30
0
 11
-0.8415394041885911
 21
-1.31573312361641
 31
0
  0
LINE
  8
0
 10
-0.8415394041885911
 20
-1.31573312361641
 30
0
 11
-0.8342405218035701
 21
-1.317684386935289
 31
0
  0
LINE
  8
0
 10
-0.8342405218035701
 20
-1.317684386935289
 30
0
 11
-0.8031844928295614
 21
-1.317684386935289
 31
0
  0
LINE
  8
0
 10
-1.017971850225601
 20
-1.317684386935289
 30
0
 11
-1.017971850225601
 21
-1.268564046977179
 31
0
  0
LINE
  8
0
 10
-1.017971850225601
 20
-1.227616665687079
 30
0
 11
-0.9876550453044294
 21
-1.227616665687079
 31
0
  0
LINE
  8
0
 10
-0.9876550453044294
 20
-1.227616665687079
 30
0
 11
-0.9775536042837013
 21
-1.230219801468989
 31
0
  0
LINE
  8
0
 10
-0.9775536042837013
 20
-1.230219801468989
 30
0
 11
-0.9715752004140413
 21
-1.2366105090538
 31
0
  0
LINE
  8
0
 10
-0.9715752004140413
 20
-1.2366105090538
 30
0
 11
-0.9695136818385109
 21
-1.244650431498949
 31
0
  0
LINE
  8
0
 10
-0.9695136818385109
 20
-1.244650431498949
 30
0
 11
-0.9688952262657295
 21
-1.25310265765929
 31
0
  0
LINE
  8
0
 10
-0.9688952262657295
 20
-1.25310265765929
 30
0
 11
-0.9736367189898303
 21
-1.262173339392381
 31
0
  0
LINE
  8
0
 10
-0.9736367189898303
 20
-1.262173339392381
 30
0
 11
-0.9794089710017907
 21
-1.266090224686299
 31
0
  0
LINE
  8
0
 10
-0.9794089710017907
 20
-1.266090224686299
 30
0
 11
-0.9826078791366201
 21
-1.26736978794025
 31
0
  0
LINE
  8
0
 10
-0.9855935267288988
 20
-1.268564046977179
 30
0
 11
-0.9826078791366201
 21
-1.26736978794025
 31
0
  0
LINE
  8
0
 10
-0.9826078791366201
 20
-1.26736978794025
 30
0
 11
-0.9855935267288988
 21
-1.268564046977179
 31
0
  0
LINE
  8
0
 10
-0.9826078791366201
 20
-1.26736978794025
 30
0
 11
-0.9740490227049015
 21
-1.272480932270799
 31
0
  0
LINE
  8
0
 10
-0.9740490227049015
 20
-1.272480932270799
 30
0
 11
-0.9691013781230905
 21
-1.2776347287103
 31
0
  0
LINE
  8
0
 10
-0.9691013781230905
 20
-1.2776347287103
 30
0
 11
-0.9653906446869188
 21
-1.288148473446099
 31
0
  0
LINE
  8
0
 10
-0.9653906446869188
 20
-1.288148473446099
 30
0
 11
-0.9651844928295615
 21
-1.30031143304288
 31
0
  0
LINE
  8
0
 10
-0.9651844928295615
 20
-1.30031143304288
 30
0
 11
-0.9688952262657295
 21
-1.309175962918289
 31
0
  0
LINE
  8
0
 10
-0.9688952262657295
 20
-1.309175962918289
 30
0
 11
-0.9728121115596006
 21
-1.31329900006989
 31
0
  0
LINE
  8
0
 10
-0.9728121115596006
 20
-1.31329900006989
 30
0
 11
-0.9822950970078099
 21
-1.317684386935289
 31
0
  0
LINE
  8
0
 10
-0.9822950970078099
 20
-1.317684386935289
 30
0
 11
-1.017971850225601
 21
-1.317684386935289
 31
0
  0
LINE
  8
0
 10
-1.017971850225601
 20
-1.268564046977179
 30
0
 11
-0.9855935267288988
 21
-1.268564046977179
 31
0
  0
LINE
  8
0
 10
-1.017971850225601
 20
-1.268564046977179
 30
0
 11
-1.017971850225601
 21
-1.227616665687079
 31
0
  0
LINE
  8
0
 10
-1.095309333891131
 20
-1.227616665687079
 30
0
 11
-1.095309333891131
 21
-1.317684386935289
 31
0
  0
LINE
  8
0
 10
-1.095309333891131
 20
-1.317684386935289
 30
0
 11
-1.046184492829562
 21
-1.317684386935289
 31
0
  0
LINE
  8
0
 10
-1.127184492829562
 20
-1.317684386935289
 30
0
 11
-1.18393577647828
 21
-1.227616665687059
 31
0
  0
LINE
  8
0
 10
-1.127184492829562
 20
-1.227616665687059
 30
0
 11
-1.127184492829562
 21
-1.317684386935289
 31
0
  0
LINE
  8
0
 10
-1.18393577647828
 20
-1.317684386935289
 30
0
 11
-1.18393577647828
 21
-1.227616665687059
 31
0
  0
LINE
  8
0
 10
0.8077909277624602
 20
-1.451145315070389
 30
0
 11
0.8083998365264305
 21
-1.388002462486109
 31
0
  0
LINE
  8
0
 10
0.8083998365264305
 20
-1.388002462486109
 30
0
 11
0.8443254535544001
 21
-1.388002462486109
 31
0
  0
LINE
  8
0
 10
0.8443254535544001
 20
-1.388002462486109
 30
0
 11
0.8508204803624577
 21
-1.39118660788281
 31
0
  0
LINE
  8
0
 10
0.8508204803624577
 20
-1.39118660788281
 30
0
 11
0.8542709633534579
 21
-1.39504303004989
 31
0
  0
LINE
  8
0
 10
0.8542709633534579
 20
-1.39504303004989
 30
0
 11
0.856909567993429
 21
-1.399711330567719
 31
0
  0
LINE
  8
0
 10
0.856909567993429
 20
-1.399711330567719
 30
0
 11
0.8573155071704277
 21
-1.451145315070389
 31
0
  0
LINE
  8
0
 10
0.7763155071704277
 20
-1.451145315070389
 30
0
 11
0.7464044009234385
 21
-1.451145315070389
 31
0
  0
LINE
  8
0
 10
0.7464044009234385
 20
-1.451145315070389
 30
0
 11
0.7381037111504484
 21
-1.44876470572849
 31
0
  0
LINE
  8
0
 10
0.7381037111504484
 20
-1.44876470572849
 30
0
 11
0.7332377895614772
 21
-1.446045514251549
 31
0
  0
LINE
  8
0
 10
0.7332377895614772
 20
-1.446045514251549
 30
0
 11
0.730518598084458
 21
-1.44175205402479
 31
0
  0
LINE
  8
0
 10
0.730518598084458
 20
-1.44175205402479
 30
0
 11
0.7277994066044703
 21
-1.432592672207329
 31
0
  0
LINE
  8
0
 10
0.7277994066044703
 20
-1.432592672207329
 30
0
 11
0.7277994066044703
 21
-1.40597321880022
 31
0
  0
LINE
  8
0
 10
0.7277994066044703
 20
-1.40597321880022
 30
0
 11
0.7302323674005203
 21
-1.396527606301079
 31
0
  0
LINE
  8
0
 10
0.7302323674005203
 20
-1.396527606301079
 30
0
 11
0.7340964816044797
 21
-1.392806607437629
 31
0
  0
LINE
  8
0
 10
0.7340964816044797
 20
-1.392806607437629
 30
0
 11
0.7379605958085195
 21
-1.38994430061984
 31
0
  0
LINE
  8
0
 10
0.7379605958085195
 20
-1.38994430061984
 30
0
 11
0.7458319395585277
 21
-1.388002462486109
 31
0
  0
LINE
  8
0
 10
0.7458319395585277
 20
-1.388002462486109
 30
0
 11
0.7584260895584594
 21
-1.388002462486109
 31
0
  0
LINE
  8
0
 10
0.7584260895584594
 20
-1.388002462486109
 30
0
 11
0.7658680872854893
 21
-1.38994430061984
 31
0
  0
LINE
  8
0
 10
0.7658680872854893
 20
-1.38994430061984
 30
0
 11
0.7707340088745478
 21
-1.393092838119519
 31
0
  0
LINE
  8
0
 10
0.7707340088745478
 20
-1.393092838119519
 30
0
 11
0.774741238420509
 21
-1.397386298346501
 31
0
  0
LINE
  8
0
 10
0.774741238420509
 20
-1.397386298346501
 30
0
 11
0.7763155071704277
 21
-1.40583010345941
 31
0
  0
LINE
  8
0
 10
0.7763155071704277
 20
-1.40583010345941
 30
0
 11
0.7763155071704277
 21
-1.41942606084472
 31
0
  0
LINE
  8
0
 10
0.7763155071704277
 20
-1.41942606084472
 30
0
 11
0.7277994066044703
 21
-1.41956917618547
 31
0
  0
LINE
  8
0
 10
0.6953155071704278
 20
-1.36132123244031
 30
0
 11
0.6904495855814604
 21
-1.3611781170995
 31
0
  0
LINE
  8
0
 10
0.6904495855814604
 20
-1.3611781170995
 30
0
 11
0.6854405486504875
 21
-1.362895501190289
 31
0
  0
LINE
  8
0
 10
0.6854405486504875
 20
-1.362895501190289
 30
0
 11
0.681290203762419
 21
-1.36804765346245
 31
0
  0
LINE
  8
0
 10
0.681290203762419
 20
-1.36804765346245
 30
0
 11
0.6790003583084691
 21
-1.376491458575339
 31
0
  0
LINE
  8
0
 10
0.6790003583084691
 20
-1.376491458575339
 30
0
 11
0.679143473650478
 21
-1.451145315070389
 31
0
  0
LINE
  8
0
 10
0.6708427838774005
 20
-1.392520376755989
 30
0
 11
0.6948861611474496
 21
-1.392520376755989
 31
0
  0
LINE
  8
0
 10
0.6548155071704277
 20
-1.388002462486109
 30
0
 11
0.6548155071704277
 21
-1.451145315070389
 31
0
  0
LINE
  8
0
 10
0.6058911465104391
 20
-1.388002462486109
 30
0
 11
0.6058911465104391
 21
-1.43353477539559
 31
0
  0
LINE
  8
0
 10
0.6058911465104391
 20
-1.43353477539559
 30
0
 11
0.6084437218514286
 21
-1.442681503692529
 31
0
  0
LINE
  8
0
 10
0.6084437218514286
 20
-1.442681503692529
 30
0
 11
0.6116344410224482
 21
-1.4469357959234
 31
0
  0
LINE
  8
0
 10
0.6116344410224482
 20
-1.4469357959234
 30
0
 11
0.6167395917014581
 21
-1.44863751281602
 31
0
  0
LINE
  8
0
 10
0.6167395917014581
 20
-1.44863751281602
 30
0
 11
0.6239718884924077
 21
-1.451145315070389
 31
0
  0
LINE
  8
0
 10
0.6239718884924077
 20
-1.451145315070389
 30
0
 11
0.6548155071704277
 21
-1.451145315070389
 31
0
  0
LINE
  8
0
 10
0.5537850481303505
 20
-1.388002462486109
 30
0
 11
0.5738155071704277
 21
-1.388002462486109
 31
0
  0
LINE
  8
0
 10
0.5613132743473981
 20
-1.451145315070389
 30
0
 11
0.5613132743473981
 21
-1.360869293650399
 31
0
  0
LINE
  8
0
 10
0.4841131715414303
 20
-1.43776474714854
 30
0
 11
0.4885494477044304
 21
-1.44475524292131
 31
0
  0
LINE
  8
0
 10
0.4885494477044304
 20
-1.44475524292131
 30
0
 11
0.4945989151994872
 21
-1.449191519084619
 31
0
  0
LINE
  8
0
 10
0.4945989151994872
 20
-1.449191519084619
 30
0
 11
0.5041436305815077
 21
-1.451145315070389
 31
0
  0
LINE
  8
0
 10
0.5041436305815077
 20
-1.451145315070389
 30
0
 11
0.5134194807405001
 21
-1.451145315070389
 31
0
  0
LINE
  8
0
 10
0.5134194807405001
 20
-1.451145315070389
 30
0
 11
0.5212165721804778
 21
-1.44905708647344
 31
0
  0
LINE
  8
0
 10
0.5212165721804778
 20
-1.44905708647344
 30
0
 11
0.527534904898468
 21
-1.444083079866199
 31
0
  0
LINE
  8
0
 10
0.527534904898468
 20
-1.444083079866199
 30
0
 11
0.5310301527824485
 21
-1.43991566892475
 31
0
  0
LINE
  8
0
 10
0.5310301527824485
 20
-1.43991566892475
 30
0
 11
0.5326433441144183
 21
-1.43547939276139
 31
0
  0
LINE
  8
0
 10
0.5326433441144183
 20
-1.43547939276139
 30
0
 11
0.5333155071704276
 21
-1.43117754920902
 31
0
  0
LINE
  8
0
 10
0.5333155071704276
 20
-1.43117754920902
 30
0
 11
0.5303579897294985
 21
-1.4260691099906
 31
0
  0
LINE
  8
0
 10
0.5303579897294985
 20
-1.4260691099906
 30
0
 11
0.5261905787864598
 21
-1.424590351269509
 31
0
  0
LINE
  8
0
 10
0.5261905787864598
 20
-1.424590351269509
 30
0
 11
0.4900282064264174
 21
-1.414911203276879
 31
0
  0
LINE
  8
0
 10
0.4900282064264174
 20
-1.414911203276879
 30
0
 11
0.4859952280965008
 21
-1.41302914672284
 31
0
  0
LINE
  8
0
 10
0.4859952280965008
 20
-1.41302914672284
 30
0
 11
0.4838443063184094
 21
-1.40832400533745
 31
0
  0
LINE
  8
0
 10
0.4838443063184094
 20
-1.40832400533745
 30
0
 11
0.4841131715414303
 21
-1.403349998729889
 31
0
  0
LINE
  8
0
 10
0.4841131715414303
 20
-1.403349998729889
 30
0
 11
0.4865329585394683
 21
-1.398779289955719
 31
0
  0
LINE
  8
0
 10
0.4865329585394683
 20
-1.398779289955719
 30
0
 11
0.4909692347024684
 21
-1.394477446403289
 31
0
  0
LINE
  8
0
 10
0.4909692347024684
 20
-1.394477446403289
 30
0
 11
0.496077673921478
 21
-1.390175602850939
 31
0
  0
LINE
  8
0
 10
0.496077673921478
 20
-1.390175602850939
 30
0
 11
0.5052190914704187
 21
-1.388002462486109
 31
0
  0
LINE
  8
0
 10
0.5052190914704187
 20
-1.388002462486109
 30
0
 11
0.5128817502974488
 21
-1.388002462486109
 31
0
  0
LINE
  8
0
 10
0.5128817502974488
 20
-1.388002462486109
 30
0
 11
0.5224264656794585
 21
-1.390175602850939
 31
0
  0
LINE
  8
0
 10
0.5224264656794585
 20
-1.390175602850939
 30
0
 11
0.5284759331744281
 21
-1.394746311625409
 31
0
  0
LINE
  8
0
 10
0.5284759331744281
 20
-1.394746311625409
 30
0
 11
0.5327777767274602
 21
-1.401602374786689
 31
0
  0
LINE
  8
0
 10
0.4027909277624602
 20
-1.451145315070389
 30
0
 11
0.4033998365264306
 21
-1.388002462486109
 31
0
  0
LINE
  8
0
 10
0.4033998365264306
 20
-1.388002462486109
 30
0
 11
0.4393254535544001
 21
-1.388002462486109
 31
0
  0
LINE
  8
0
 10
0.4393254535544001
 20
-1.388002462486109
 30
0
 11
0.4458204803624575
 21
-1.39118660788281
 31
0
  0
LINE
  8
0
 10
0.4458204803624575
 20
-1.39118660788281
 30
0
 11
0.4492709633534577
 21
-1.39504303004989
 31
0
  0
LINE
  8
0
 10
0.4492709633534577
 20
-1.39504303004989
 30
0
 11
0.4519095679934289
 21
-1.399711330567719
 31
0
  0
LINE
  8
0
 10
0.4519095679934289
 20
-1.399711330567719
 30
0
 11
0.4523155071704277
 21
-1.451145315070389
 31
0
  0
LINE
  8
0
 10
0.3713155071704277
 20
-1.36093897731475
 30
0
 11
0.3713155071704277
 21
-1.36569528551029
 31
0
  0
LINE
  8
0
 10
0.3708958329163797
 20
-1.451145315070389
 30
0
 11
0.3708958329163797
 21
-1.388002462486109
 31
0
  0
LINE
  8
0
 10
0.3443155071704277
 20
-1.451145315070389
 30
0
 11
0.3144044009234385
 21
-1.451145315070389
 31
0
  0
LINE
  8
0
 10
0.3144044009234385
 20
-1.451145315070389
 30
0
 11
0.3061037111504483
 21
-1.44876470572849
 31
0
  0
LINE
  8
0
 10
0.3061037111504483
 20
-1.44876470572849
 30
0
 11
0.3012377895614772
 21
-1.446045514251549
 31
0
  0
LINE
  8
0
 10
0.3012377895614772
 20
-1.446045514251549
 30
0
 11
0.298518598084458
 21
-1.44175205402479
 31
0
  0
LINE
  8
0
 10
0.298518598084458
 20
-1.44175205402479
 30
0
 11
0.2957994066044703
 21
-1.432592672207329
 31
0
  0
LINE
  8
0
 10
0.2957994066044703
 20
-1.432592672207329
 30
0
 11
0.2957994066044703
 21
-1.40597321880022
 31
0
  0
LINE
  8
0
 10
0.2957994066044703
 20
-1.40597321880022
 30
0
 11
0.2982323674005201
 21
-1.396527606301079
 31
0
  0
LINE
  8
0
 10
0.2982323674005201
 20
-1.396527606301079
 30
0
 11
0.3020964816044797
 21
-1.392806607437629
 31
0
  0
LINE
  8
0
 10
0.3020964816044797
 20
-1.392806607437629
 30
0
 11
0.3059605958085194
 21
-1.38994430061984
 31
0
  0
LINE
  8
0
 10
0.3059605958085194
 20
-1.38994430061984
 30
0
 11
0.3138319395585276
 21
-1.388002462486109
 31
0
  0
LINE
  8
0
 10
0.3138319395585276
 20
-1.388002462486109
 30
0
 11
0.3264260895584593
 21
-1.388002462486109
 31
0
  0
LINE
  8
0
 10
0.3264260895584593
 20
-1.388002462486109
 30
0
 11
0.3338680872854892
 21
-1.38994430061984
 31
0
  0
LINE
  8
0
 10
0.3338680872854892
 20
-1.38994430061984
 30
0
 11
0.3387340088745479
 21
-1.393092838119519
 31
0
  0
LINE
  8
0
 10
0.3387340088745479
 20
-1.393092838119519
 30
0
 11
0.342741238420509
 21
-1.397386298346501
 31
0
  0
LINE
  8
0
 10
0.342741238420509
 20
-1.397386298346501
 30
0
 11
0.3443155071704277
 21
-1.40583010345941
 31
0
  0
LINE
  8
0
 10
0.3443155071704277
 20
-1.40583010345941
 30
0
 11
0.3443155071704277
 21
-1.41942606084472
 31
0
  0
LINE
  8
0
 10
0.3443155071704277
 20
-1.41942606084472
 30
0
 11
0.2957994066044703
 21
-1.41956917618547
 31
0
  0
LINE
  8
0
 10
0.2432850481303504
 20
-1.388002462486109
 30
0
 11
0.2633155071704277
 21
-1.388002462486109
 31
0
  0
LINE
  8
0
 10
0.2508132743473988
 20
-1.451145315070389
 30
0
 11
0.2508132743473988
 21
-1.360869293650399
 31
0
  0
LINE
  8
0
 10
0.1656980127178904
 20
-1.43993141614128
 30
0
 11
0.1699327837108903
 21
-1.444738936455789
 31
0
  0
LINE
  8
0
 10
0.1699327837108903
 20
-1.444738936455789
 30
0
 11
0.1783459442611783
 21
-1.449000147643699
 31
0
  0
LINE
  8
0
 10
0.1783459442611783
 20
-1.449000147643699
 30
0
 11
0.1878517230650177
 21
-1.451145315070389
 31
0
  0
LINE
  8
0
 10
0.1878517230650177
 20
-1.451145315070389
 30
0
 11
0.2008538802791481
 21
-1.451145315070389
 31
0
  0
LINE
  8
0
 10
0.2008538802791481
 20
-1.451145315070389
 30
0
 11
0.2106874445588073
 21
-1.44878162399298
 31
0
  0
LINE
  8
0
 10
0.2106874445588073
 20
-1.44878162399298
 30
0
 11
0.2168061067772286
 21
-1.44441115097988
 31
0
  0
LINE
  8
0
 10
0.2168061067772286
 20
-1.44441115097988
 30
0
 11
0.2205210088384701
 21
-1.437309132333479
 31
0
  0
LINE
  8
0
 10
0.2205210088384701
 20
-1.437309132333479
 30
0
 11
0.2228155071704278
 21
-1.431408993765799
 31
0
  0
LINE
  8
0
 10
0.2228155071704278
 20
-1.431408993765799
 30
0
 11
0.2222691980438286
 21
-1.42616442614989
 31
0
  0
LINE
  8
0
 10
0.2222691980438286
 20
-1.42616442614989
 30
0
 11
0.220302485187778
 21
-1.419608716630089
 31
0
  0
LINE
  8
0
 10
0.220302485187778
 20
-1.419608716630089
 30
0
 11
0.2161505358251489
 21
-1.41305300711059
 31
0
  0
LINE
  8
0
 10
0.2161505358251489
 20
-1.41305300711059
 30
0
 11
0.2102503972574195
 21
-1.408682534097179
 31
0
  0
LINE
  8
0
 10
0.2102503972574195
 20
-1.408682534097179
 30
0
 11
0.1752866131520204
 21
-1.39218399847247
 31
0
  0
LINE
  8
0
 10
0.1752866131520204
 20
-1.39218399847247
 30
0
 11
0.1699327837108903
 21
-1.388359834585959
 31
0
  0
LINE
  8
0
 10
0.1699327837108903
 20
-1.388359834585959
 30
0
 11
0.1677475472044898
 21
-1.382131910542399
 31
0
  0
LINE
  8
0
 10
0.1677475472044898
 20
-1.382131910542399
 30
0
 11
0.1680753326804005
 21
-1.37710586657718
 31
0
  0
LINE
  8
0
 10
0.1680753326804005
 20
-1.37710586657718
 30
0
 11
0.1697142600601983
 21
-1.37033163340668
 31
0
  0
LINE
  8
0
 10
0.1697142600601983
 20
-1.37033163340668
 30
0
 11
0.1762699695800001
 21
-1.365742636742849
 31
0
  0
LINE
  8
0
 10
0.1762699695800001
 20
-1.365742636742849
 30
0
 11
0.1901462213968979
 21
-1.36107759382218
 31
0
  0
LINE
  8
0
 10
0.1901462213968979
 20
-1.36107759382218
 30
0
 11
0.1983408582964984
 21
-1.36107759382218
 31
0
  0
LINE
  8
0
 10
0.1983408582964984
 20
-1.36107759382218
 30
0
 11
0.2090485171790096
 21
-1.36377592388688
 31
0
  0
LINE
  8
0
 10
0.2090485171790096
 20
-1.36377592388688
 30
0
 11
0.2145116084452601
 21
-1.365633374917699
 31
0
  0
LINE
  8
0
 10
0.2145116084452601
 20
-1.365633374917699
 30
0
 11
0.2201932233622974
 21
-1.37011310975595
 31
0
  0
LINE
  8
0
 10
0.06081550717042775
 20
-1.36093897731475
 30
0
 11
0.06081550717042775
 21
-1.36569528551029
 31
0
  0
LINE
  8
0
 10
0.06039583291637973
 20
-1.451145315070389
 30
0
 11
0.06039583291637973
 21
-1.388002462486109
 31
0
  0
LINE
  8
0
 10
0.03381550717042775
 20
-1.451145315070389
 30
0
 11
0.003904400923438516
 21
-1.451145315070389
 31
0
  0
LINE
  8
0
 10
0.003904400923438516
 20
-1.451145315070389
 30
0
 11
-0.004396288849551638
 21
-1.44876470572849
 31
0
  0
LINE
  8
0
 10
-0.004396288849551638
 20
-1.44876470572849
 30
0
 11
-0.009262210438522744
 21
-1.446045514251549
 31
0
  0
LINE
  8
0
 10
-0.009262210438522744
 20
-1.446045514251549
 30
0
 11
-0.01198140191554194
 21
-1.44175205402479
 31
0
  0
LINE
  8
0
 10
-0.01198140191554194
 20
-1.44175205402479
 30
0
 11
-0.01470059339552972
 21
-1.432592672207329
 31
0
  0
LINE
  8
0
 10
-0.01470059339552972
 20
-1.432592672207329
 30
0
 11
-0.01470059339552972
 21
-1.40597321880022
 31
0
  0
LINE
  8
0
 10
-0.01470059339552972
 20
-1.40597321880022
 30
0
 11
-0.01226763259947984
 21
-1.396527606301079
 31
0
  0
LINE
  8
0
 10
-0.01226763259947984
 20
-1.396527606301079
 30
0
 11
-0.008403518395520223
 21
-1.392806607437629
 31
0
  0
LINE
  8
0
 10
-0.008403518395520223
 20
-1.392806607437629
 30
0
 11
-0.004539404191480572
 21
-1.38994430061984
 31
0
  0
LINE
  8
0
 10
-0.004539404191480572
 20
-1.38994430061984
 30
0
 11
0.003331939558527664
 21
-1.388002462486109
 31
0
  0
LINE
  8
0
 10
0.003331939558527664
 20
-1.388002462486109
 30
0
 11
0.01592608955845935
 21
-1.388002462486109
 31
0
  0
LINE
  8
0
 10
0.01592608955845935
 20
-1.388002462486109
 30
0
 11
0.02336808728548931
 21
-1.38994430061984
 31
0
  0
LINE
  8
0
 10
0.02336808728548931
 20
-1.38994430061984
 30
0
 11
0.02823400887454773
 21
-1.393092838119519
 31
0
  0
LINE
  8
0
 10
0.02823400887454773
 20
-1.393092838119519
 30
0
 11
0.03224123842050903
 21
-1.397386298346501
 31
0
  0
LINE
  8
0
 10
0.03224123842050903
 20
-1.397386298346501
 30
0
 11
0.03381550717042775
 21
-1.40583010345941
 31
0
  0
LINE
  8
0
 10
0.03381550717042775
 20
-1.40583010345941
 30
0
 11
0.03381550717042775
 21
-1.41942606084472
 31
0
  0
LINE
  8
0
 10
0.03381550717042775
 20
-1.41942606084472
 30
0
 11
-0.01470059339552972
 21
-1.41956917618547
 31
0
  0
LINE
  8
0
 10
-0.09627305475765024
 20
-1.360748771077089
 30
0
 11
-0.09584370873466014
 21
-1.451145315070389
 31
0
  0
LINE
  8
0
 10
-0.09584370873466014
 20
-1.451145315070389
 30
0
 11
-0.06550325646468992
 21
-1.451145315070389
 31
0
  0
LINE
  8
0
 10
-0.06550325646468992
 20
-1.451145315070389
 30
0
 11
-0.05734568203066102
 21
-1.44876470572912
 31
0
  0
LINE
  8
0
 10
-0.05734568203066102
 20
-1.44876470572912
 30
0
 11
-0.05405402919161133
 21
-1.44647486027479
 31
0
  0
LINE
  8
0
 10
-0.05405402919161133
 20
-1.44647486027479
 30
0
 11
-0.04918810759967165
 21
-1.44218140004781
 31
0
  0
LINE
  8
0
 10
-0.04918810759967165
 20
-1.44218140004781
 30
0
 11
-0.04718449282957227
 21
-1.43316513357113
 31
0
  0
LINE
  8
0
 10
-0.04718449282957227
 20
-1.43316513357113
 30
0
 11
-0.04718449282957227
 21
-1.40568698811891
 31
0
  0
LINE
  8
0
 10
-0.04718449282957227
 20
-1.40568698811891
 30
0
 11
-0.05018991498765172
 21
-1.3968138369833
 31
0
  0
LINE
  8
0
 10
-0.05018991498765172
 20
-1.3968138369833
 30
0
 11
-0.05348156782660953
 21
-1.39266349209715
 31
0
  0
LINE
  8
0
 10
-0.05348156782660953
 20
-1.39266349209715
 30
0
 11
-0.05791814339565099
 21
-1.3903736466428
 31
0
  0
LINE
  8
0
 10
-0.05791814339565099
 20
-1.3903736466428
 30
0
 11
-0.06493079509961172
 21
-1.388002462486109
 31
0
  0
LINE
  8
0
 10
-0.06493079509961172
 20
-1.388002462486109
 30
0
 11
-0.09614361104770069
 21
-1.388002462486109
 31
0
  0
LINE
  8
0
 10
-0.2666248861606001
 20
-1.451145315070389
 30
0
 11
-0.2658130078095711
 21
-1.388002462486109
 31
0
  0
LINE
  8
0
 10
-0.2658130078095711
 20
-1.388002462486109
 30
0
 11
-0.2217686072715696
 21
-1.388002462486109
 31
0
  0
LINE
  8
0
 10
-0.2217686072715696
 20
-1.388002462486109
 30
0
 11
-0.2156795196375424
 21
-1.39017175994422
 31
0
  0
LINE
  8
0
 10
-0.2156795196375424
 20
-1.39017175994422
 30
0
 11
-0.212432006233601
 21
-1.393825212523439
 31
0
  0
LINE
  8
0
 10
-0.212432006233601
 20
-1.393825212523439
 30
0
 11
-0.2091844928295723
 21
-1.39889945221673
 31
0
  0
LINE
  8
0
 10
-0.2091844928295723
 20
-1.39889945221673
 30
0
 11
-0.2091844928295723
 21
-1.451145315070389
 31
0
  0
LINE
  8
0
 10
-0.2382091438755414
 20
-1.451145315070389
 30
0
 11
-0.2382091438755414
 21
-1.388002462486109
 31
0
  0
LINE
  8
0
 10
-0.2903276081685327
 20
-1.388002462486109
 30
0
 11
-0.3206680604385902
 21
-1.388002462486109
 31
0
  0
LINE
  8
0
 10
-0.3206680604385902
 20
-1.388002462486109
 30
0
 11
-0.3285394041885993
 21
-1.3899443006201
 31
0
  0
LINE
  8
0
 10
-0.3285394041885993
 20
-1.3899443006201
 30
0
 11
-0.3329759797575499
 21
-1.392091030733589
 31
0
  0
LINE
  8
0
 10
-0.3329759797575499
 20
-1.392091030733589
 30
0
 11
-0.3369832093036011
 21
-1.39695695232411
 31
0
  0
LINE
  8
0
 10
-0.3369832093036011
 20
-1.39695695232411
 30
0
 11
-0.3388437087345811
 21
-1.405543872777789
 31
0
  0
LINE
  8
0
 10
-0.3388437087345811
 20
-1.405543872777789
 30
0
 11
-0.3388437087345811
 21
-1.433308248911939
 31
0
  0
LINE
  8
0
 10
-0.3388437087345811
 20
-1.433308248911939
 30
0
 11
-0.3368400939615895
 21
-1.442467630729439
 31
0
  0
LINE
  8
0
 10
-0.3368400939615895
 20
-1.442467630729439
 30
0
 11
-0.3328328644156209
 21
-1.446761090956439
 31
0
  0
LINE
  8
0
 10
-0.3328328644156209
 20
-1.446761090956439
 30
0
 11
-0.3285394041885993
 21
-1.44919405175151
 31
0
  0
LINE
  8
0
 10
-0.3285394041885993
 20
-1.44919405175151
 30
0
 11
-0.321240521803582
 21
-1.451145315070389
 31
0
  0
LINE
  8
0
 10
-0.321240521803582
 20
-1.451145315070389
 30
0
 11
-0.2901844928295723
 21
-1.451145315070389
 31
0
  0
LINE
  8
0
 10
-0.5008667334621715
 20
-1.37517178427239
 30
0
 11
-0.4962209819733616
 21
-1.368181865360879
 31
0
  0
LINE
  8
0
 10
-0.4962209819733616
 20
-1.368181865360879
 30
0
 11
-0.4911882403570017
 21
-1.363708317257289
 31
0
  0
LINE
  8
0
 10
-0.4911882403570017
 20
-1.363708317257289
 30
0
 11
-0.4826605392846615
 21
-1.36107759382218
 31
0
  0
LINE
  8
0
 10
-0.4826605392846615
 20
-1.36107759382218
 30
0
 11
-0.470498080378341
 21
-1.36107759382218
 31
0
  0
LINE
  8
0
 10
-0.470498080378341
 20
-1.36107759382218
 30
0
 11
-0.4622499760623904
 21
-1.36342872050088
 31
0
  0
LINE
  8
0
 10
-0.4622499760623904
 20
-1.36342872050088
 30
0
 11
-0.4563784441765093
 21
-1.36804206698238
 31
0
  0
LINE
  8
0
 10
-0.4563784441765093
 20
-1.36804206698238
 30
0
 11
-0.4521844928295722
 21
-1.3750319858942
 31
0
  0
LINE
  8
0
 10
-0.4521844928295722
 20
-1.3750319858942
 30
0
 11
-0.4521844928295722
 21
-1.383419888588289
 31
0
  0
LINE
  8
0
 10
-0.4521844928295722
 20
-1.383419888588289
 30
0
 11
-0.4565182425547101
 21
-1.393065976686479
 31
0
  0
LINE
  8
0
 10
-0.4565182425547101
 20
-1.393065976686479
 30
0
 11
-0.5008667334621715
 21
-1.451145315070389
 31
0
  0
LINE
  8
0
 10
-0.5008667334621715
 20
-1.451145315070389
 30
0
 11
-0.4524640895859595
 21
-1.451145315070389
 31
0
  0
LINE
  8
0
 10
-0.5815935344992322
 20
-1.37049490016357
 30
0
 11
-0.5815935344992322
 21
-1.36107759382218
 31
0
  0
LINE
  8
0
 10
-0.5815935344992322
 20
-1.36107759382218
 30
0
 11
-0.5331844928295724
 21
-1.36107759382218
 31
0
  0
LINE
  8
0
 10
-0.5331844928295724
 20
-1.36107759382218
 30
0
 11
-0.573189289120921
 21
-1.451145315070389
 31
0
  0
LINE
  8
0
 10
-0.6973444928295721
 20
-1.451145315070389
 30
0
 11
-0.6951844928295724
 21
-1.451145315070389
 31
0
  0
LINE
  8
0
 10
-0.6951844928295724
 20
-1.451145315070389
 30
0
 11
-0.6951844928295724
 21
-1.448985315070389
 31
0
  0
LINE
  8
0
 10
-0.6951844928295724
 20
-1.448985315070389
 30
0
 11
-0.6973444928295721
 21
-1.448985315070389
 31
0
  0
LINE
  8
0
 10
-0.6973444928295721
 20
-1.448985315070389
 30
0
 11
-0.6973444928295721
 21
-1.451145315070389
 31
0
  0
LINE
  8
0
 10
-0.6967202910601009
 20
-1.45049121851874
 30
0
 11
-0.6956202087630808
 21
-1.45049121851874
 31
0
  0
LINE
  8
0
 10
-0.6956202087630808
 20
-1.45049121851874
 30
0
 11
-0.6956202087630808
 21
-1.44959115118551
 31
0
  0
LINE
  8
0
 10
-0.6956202087630808
 20
-1.44959115118551
 30
0
 11
-0.6967202910601009
 21
-1.44959115118551
 31
0
  0
LINE
  8
0
 10
-0.6967202910601009
 20
-1.44959115118551
 30
0
 11
-0.6967202910601009
 21
-1.45049121851874
 31
0
  0
LINE
  8
0
 10
-0.7221844928295724
 20
-1.451145315070389
 30
0
 11
-0.7241091284295509
 21
-1.451145315070389
 31
0
  0
LINE
  8
0
 10
-0.7241091284295509
 20
-1.451145315070389
 30
0
 11
-0.7261818129225505
 21
-1.44870250834672
 31
0
  0
LINE
  8
0
 10
-0.7261818129225505
 20
-1.44870250834672
 30
0
 11
-0.7261494942441604
 21
-1.43545185021321
 31
0
  0
LINE
  8
0
 10
-0.7260337640295292
 20
-1.388002462486109
 30
0
 11
-0.7563097625145092
 21
-1.388002462486109
 31
0
  0
LINE
  8
0
 10
-0.7563097625145092
 20
-1.388002462486109
 30
0
 11
-0.76467452493155
 21
-1.39022319587122
 31
0
  0
LINE
  8
0
 10
-0.76467452493155
 20
-1.39022319587122
 30
0
 11
-0.7705964806246022
 21
-1.39481271153381
 31
0
  0
LINE
  8
0
 10
-0.7705964806246022
 20
-1.39481271153381
 30
0
 11
-0.774741849610612
 21
-1.40362162062829
 31
0
  0
LINE
  8
0
 10
-0.774741849610612
 20
-1.40362162062829
 30
0
 11
-0.7746678251655794
 21
-1.43537810803584
 31
0
  0
LINE
  8
0
 10
-0.7746678251655794
 20
-1.43537810803584
 30
0
 11
-0.7708185539625702
 21
-1.44418701713032
 31
0
  0
LINE
  8
0
 10
-0.7708185539625702
 20
-1.44418701713032
 30
0
 11
-0.76467452493155
 21
-1.44877653279291
 31
0
  0
LINE
  8
0
 10
-0.76467452493155
 20
-1.44877653279291
 30
0
 11
-0.7564578114045726
 21
-1.451145315070389
 31
0
  0
LINE
  8
0
 10
-0.7564578114045726
 20
-1.451145315070389
 30
0
 11
-0.7443918266805922
 21
-1.451145315070389
 31
0
  0
LINE
  8
0
 10
-0.7443918266805922
 20
-1.451145315070389
 30
0
 11
-0.7361751131536112
 21
-1.44885055723909
 31
0
  0
LINE
  8
0
 10
-0.7361751131536112
 20
-1.44885055723909
 30
0
 11
-0.7302531574605593
 21
-1.444483114914839
 31
0
  0
LINE
  8
0
 10
-0.7302531574605593
 20
-1.444483114914839
 30
0
 11
-0.7261494942441604
 21
-1.43545185021321
 31
0
  0
LINE
  8
0
 10
-0.7261494942441604
 20
-1.43545185021321
 30
0
 11
-0.7260337640295292
 21
-1.388002462486109
 31
0
  0
LINE
  8
0
 10
-0.8033276081685327
 20
-1.388002462486109
 30
0
 11
-0.8336680604385903
 21
-1.388002462486109
 31
0
  0
LINE
  8
0
 10
-0.8336680604385903
 20
-1.388002462486109
 30
0
 11
-0.8415394041885992
 21
-1.3899443006201
 31
0
  0
LINE
  8
0
 10
-0.8415394041885992
 20
-1.3899443006201
 30
0
 11
-0.8459759797575498
 21
-1.392091030733589
 31
0
  0
LINE
  8
0
 10
-0.8459759797575498
 20
-1.392091030733589
 30
0
 11
-0.8499832093036013
 21
-1.39695695232411
 31
0
  0
LINE
  8
0
 10
-0.8499832093036013
 20
-1.39695695232411
 30
0
 11
-0.851843708734581
 21
-1.405543872777789
 31
0
  0
LINE
  8
0
 10
-0.851843708734581
 20
-1.405543872777789
 30
0
 11
-0.851843708734581
 21
-1.433308248911939
 31
0
  0
LINE
  8
0
 10
-0.851843708734581
 20
-1.433308248911939
 30
0
 11
-0.8498400939615894
 21
-1.442467630729439
 31
0
  0
LINE
  8
0
 10
-0.8498400939615894
 20
-1.442467630729439
 30
0
 11
-0.845832864415621
 21
-1.446761090956439
 31
0
  0
LINE
  8
0
 10
-0.845832864415621
 20
-1.446761090956439
 30
0
 11
-0.8415394041885992
 21
-1.44919405175151
 31
0
  0
LINE
  8
0
 10
-0.8415394041885992
 20
-1.44919405175151
 30
0
 11
-0.834240521803582
 21
-1.451145315070389
 31
0
  0
LINE
  8
0
 10
-0.834240521803582
 20
-1.451145315070389
 30
0
 11
-0.8031844928295724
 21
-1.451145315070389
 31
0
  0
LINE
  8
0
 10
-1.017971850225611
 20
-1.451145315070389
 30
0
 11
-1.017971850225611
 21
-1.402024975112279
 31
0
  0
LINE
  8
0
 10
-1.017971850225611
 20
-1.36107759382218
 30
0
 11
-0.9876550453044403
 21
-1.36107759382218
 31
0
  0
LINE
  8
0
 10
-0.9876550453044403
 20
-1.36107759382218
 30
0
 11
-0.9775536042837112
 21
-1.36368072960409
 31
0
  0
LINE
  8
0
 10
-0.9775536042837112
 20
-1.36368072960409
 30
0
 11
-0.9715752004140523
 21
-1.370071437188899
 31
0
  0
LINE
  8
0
 10
-0.9715752004140523
 20
-1.370071437188899
 30
0
 11
-0.9695136818385217
 21
-1.378111359634049
 31
0
  0
LINE
  8
0
 10
-0.9695136818385217
 20
-1.378111359634049
 30
0
 11
-0.9688952262657403
 21
-1.386563585794389
 31
0
  0
LINE
  8
0
 10
-0.9688952262657403
 20
-1.386563585794389
 30
0
 11
-0.9736367189898403
 21
-1.395634267527479
 31
0
  0
LINE
  8
0
 10
-0.9736367189898403
 20
-1.395634267527479
 30
0
 11
-0.9794089710018016
 21
-1.399551152821399
 31
0
  0
LINE
  8
0
 10
-0.9794089710018016
 20
-1.399551152821399
 30
0
 11
-0.9826078791366308
 21
-1.40083071607535
 31
0
  0
LINE
  8
0
 10
-0.9855935267289097
 20
-1.402024975112279
 30
0
 11
-0.9826078791366308
 21
-1.40083071607535
 31
0
  0
LINE
  8
0
 10
-0.9826078791366308
 20
-1.40083071607535
 30
0
 11
-0.9855935267289097
 21
-1.402024975112279
 31
0
  0
LINE
  8
0
 10
-0.9826078791366308
 20
-1.40083071607535
 30
0
 11
-0.9740490227049122
 21
-1.405941860405899
 31
0
  0
LINE
  8
0
 10
-0.9740490227049122
 20
-1.405941860405899
 30
0
 11
-0.9691013781231014
 21
-1.4110956568454
 31
0
  0
LINE
  8
0
 10
-0.9691013781231014
 20
-1.4110956568454
 30
0
 11
-0.9653906446869297
 21
-1.4216094015812
 31
0
  0
LINE
  8
0
 10
-0.9653906446869297
 20
-1.4216094015812
 30
0
 11
-0.9651844928295724
 21
-1.43377236117798
 31
0
  0
LINE
  8
0
 10
-0.9651844928295724
 20
-1.43377236117798
 30
0
 11
-0.9688952262657403
 21
-1.442636891053389
 31
0
  0
LINE
  8
0
 10
-0.9688952262657403
 20
-1.442636891053389
 30
0
 11
-0.9728121115596113
 21
-1.446759928204991
 31
0
  0
LINE
  8
0
 10
-0.9728121115596113
 20
-1.446759928204991
 30
0
 11
-0.9822950970078199
 21
-1.451145315070389
 31
0
  0
LINE
  8
0
 10
-0.9822950970078199
 20
-1.451145315070389
 30
0
 11
-1.017971850225611
 21
-1.451145315070389
 31
0
  0
LINE
  8
0
 10
-1.017971850225611
 20
-1.402024975112279
 30
0
 11
-0.9855935267289097
 21
-1.402024975112279
 31
0
  0
LINE
  8
0
 10
-1.017971850225611
 20
-1.402024975112279
 30
0
 11
-1.017971850225611
 21
-1.36107759382218
 31
0
  0
LINE
  8
0
 10
-1.095309333891142
 20
-1.36107759382218
 30
0
 11
-1.095309333891142
 21
-1.451145315070389
 31
0
  0
LINE
  8
0
 10
-1.095309333891142
 20
-1.451145315070389
 30
0
 11
-1.046184492829572
 21
-1.451145315070389
 31
0
  0
LINE
  8
0
 10
-1.127184492829572
 20
-1.451145315070389
 30
0
 11
-1.18393577647829
 21
-1.36107759382216
 31
0
  0
LINE
  8
0
 10
-1.127184492829572
 20
-1.36107759382216
 30
0
 11
-1.127184492829572
 21
-1.451145315070389
 31
0
  0
LINE
  8
0
 10
-1.18393577647829
 20
-1.451145315070389
 30
0
 11
-1.18393577647829
 21
-1.36107759382216
 31
0
  0
ARC
  8
0
 10
3.637978807091713e-13
 20
0
 30
0
 40
0.5899999999999997
 50
26.19528973514865
 51
49.50204750318269
  0
ARC
  8
0
 10
3.637978807091713e-13
 20
0
 30
0
 40
0.59
 50
2.888531967115425
 51
26.19528973514865
  0
ARC
  8
0
 10
3.637978807091713e-13
 20
0
 30
0
 40
0.5900000000000007
 50
339.581774199082
 51
2.888531967115425
  0
ARC
  8
0
 10
3.637978807091713e-13
 20
0
 30
0
 40
0.5900000000000029
 50
316.2750164310485
 51
339.581774199082
  0
ARC
  8
0
 10
3.637978807091713e-13
 20
0
 30
0
 40
0.5900000000000001
 50
292.968258663015
 51
316.2750164310485
  0
ARC
  8
0
 10
3.637978807091713e-13
 20
0
 30
0
 40
0.5900000000000002
 50
269.6615008949822
 51
292.968258663015
  0
ARC
  8
0
 10
3.637978807091713e-13
 20
0
 30
0
 40
0.5900000000000026
 50
246.3547431269481
 51
269.6615008949822
  0
ARC
  8
0
 10
3.637978807091713e-13
 20
0
 30
0
 40
0.590000000000001
 50
223.0479853589151
 51
246.3547431269481
  0
ARC
  8
0
 10
3.637978807091713e-13
 20
0
 30
0
 40
0.5900000000000009
 50
199.7412275908816
 51
223.0479853589151
  0
ARC
  8
0
 10
3.637978807091713e-13
 20
0
 30
0
 40
0.5900000000000004
 50
176.4344698228481
 51
199.7412275908816
  0
ARC
  8
0
 10
3.637978807091713e-13
 20
0
 30
0
 40
0.5899999999999972
 50
153.1277120548146
 51
176.4344698228481
  0
ARC
  8
0
 10
3.637978807091713e-13
 20
0
 30
0
 40
0.589999999999995
 50
129.8209542867814
 51
153.1277120548146
  0
ARC
  8
0
 10
3.637978807091713e-13
 20
0
 30
0
 40
0.5899999999999984
 50
106.5141965187471
 51
129.8209542867814
  0
ARC
  8
0
 10
3.637978807091713e-13
 20
0
 30
0
 40
0.9825000000000033
 50
53.08007243595113
 51
126.919927564049
  0
CIRCLE
  8
0
  6
DASHED
 10
3.637978807091713e-13
 20
0
 30
0
 40
1.012499999999999
  0
CIRCLE
  8
0
 10
-0.1677092160125922
 20
0.5656621066187109
 30
0
 40
0.07000000000000001
  0
INSERT
  8
0
  2
*D0
 10
0
 20
0
 30
0
 43
1
  0
INSERT
  8
0
  2
*D1
 10
0
 20
0
 30
0
 43
1
  0
ENDSEC
  0
EOF
