  0
SECTION
  2
HEADER
  9
$ACADVER
  1
AC1009
  9
$INSBASE
 10
0
 20
0
  9
$EXTMIN
 10
-1.17393326407369
 20
-1.471177729543289
  9
$EXTMAX
 10
1.24512323761336
 20
1.101624631482411
  9
$LIMMIN
 10
-1.17393326407369
 20
-1.471177729543289
  9
$LIMMAX
 10
1.24512323761336
 20
1.101624631482411
  9
$VIEWCTR
 10
10
 20
10
  9
$VIEWSIZE
 40
10
  9
$SNAPMODE
 70
0
  9
$SNAPUNIT
 10
1
 20
1
  9
$SNAPBASE
 10
0
 20
0
  9
$SNAPANG
 50
0
  9
$SNAPSTYLE
 70
0
  9
$SNAPISOPAIR
 70
0
  9
$GRIDMODE
 70
0
  9
$GRIDUNIT
 10
0
 20
0
  9
$ORTHOMODE
 70
0
  9
$REGENMODE
 70
1
  9
$FILLMODE
 70
1
  9
$QTEXTMODE
 70
0
  9
$DRAGMODE
 70
2
  9
$LTSCALE
 40
1
  9
$OSMODE
 70
0
  9
$ATTMODE
 70
1
  9
$TEXTSIZE
 40
3.5
  9
$TRACEWID
 40
0.5
  9
$TEXTSTYLE
  7
STANDARD
  9
$CLAYER
  8
0
  9
$CELTYPE
  6
BYLAYER
  9
$CECOLOR
 62
256
  9
$DIMSCALE
 40
1
  9
$DIMASZ
 40
0.18
  9
$DIMEXO
 40
0.0625
  9
$DIMDLI
 40
0.38
  9
$DIMRND
 40
0
  9
$DIMDLE
 40
0
  9
$DIMEXE
 40
0.18
  9
$DIMTP
 40
0
  9
$DIMTM
 40
0
  9
$DIMTXT
 40
0.18
  9
$DIMCEN
 40
0.09
  9
$DIMTSZ
 40
0
  9
$DIMTOL
 70
0
  9
$DIMLIM
 70
0
  9
$DIMTIH
 70
1
  9
$DIMTOH
 70
1
  9
$DIMSE1
 70
0
  9
$DIMSE2
 70
0
  9
$DIMTAD
 70
0
  9
$DIMZIN
 70
0
  9
$DIMBLK
  1

  9
$DIMASO
 70
1
  9
$DIMSHO
 70
1
  9
$DIMPOST
  1

  9
$DIMAPOST
  1

  9
$DIMALT
 70
0
  9
$DIMALTD
 70
2
  9
$DIMALTF
 40
25.4
  9
$DIMLFAC
 40
1
  9
$DIMTOFL
 70
0
  9
$DIMTVP
 40
0
  9
$DIMTIX
 70
0
  9
$DIMSOXD
 70
0
  9
$DIMSAH
 70
0
  9
$DIMBLK1
  1

  9
$DIMBLK2
  1

  9
$DIMSTYLE
  2
*UNNAMED
  9
$DIMCLRD
 70
0
  9
$DIMCLRE
 70
0
  9
$DIMCLRT
 70
0
  9
$DIMTFAC
 40
1
  9
$DIMGAP
 40
0.09
  9
$LUNITS
 70
2
  9
$LUPREC
 70
4
  9
$AXISMODE
 70
0
  9
$AXISUNIT
 10
0
 20
0
  9
$SKETCHINC
 40
0.1
  9
$FILLETRAD
 40
2
  9
$AUNITS
 70
0
  9
$AUPREC
 70
0
  9
$MENU
  1
ACAD
  9
$ELEVATION
 40
0
  9
$THICKNESS
 40
0
  9
$VIEWDIR
 10
0
 20
0
 30
1
  9
$LIMCHECK
 70
0
  9
$BLIPMODE
 70
1
  9
$CHAMFERA
 40
0
  9
$CHAMFERB
 40
0
  9
$FASTZOOM
 70
1
  9
$SKPOLY
 70
0
  9
$ANGBASE
 50
0
  9
$ANGDIR
 70
0
  9
$PDMODE
 70
0
  9
$PDSIZE
 40
0
  9
$PLINEWID
 40
0
  9
$COORDS
 70
2
  0
ENDSEC
  0
SECTION
  2
TABLES
  0
TABLE
  2
LTYPE
 70
9
  0
LTYPE
  2
CONTINUOUS
 70
64
  3
Solid line
 72
65
 73
0
 40
0
  0
LTYPE
  2
BORDER
 70
64
  3
__ __ . __ __ .
 72
65
 73
6
 40
0.1184843192577625
 49
0.03385266264507501
 49
-0.0169263313225375
 49
0.03385266264507501
 49
-0.0169263313225375
 49
0
 49
-0.0169263313225375
  0
LTYPE
  2
CENTER
 70
64
  3
____ _ ____ _
 72
65
 73
4
 40
0.1354106505803
 49
0.08463165661268751
 49
-0.0169263313225375
 49
0.0169263313225375
 49
-0.0169263313225375
  0
LTYPE
  2
DASHDOT
 70
64
  3
__ . __ . __ .
 72
65
 73
4
 40
0.06770532529015001
 49
0.03385266264507501
 49
-0.0169263313225375
 49
0
 49
-0.0169263313225375
  0
LTYPE
  2
DASHED
 70
64
  3
__ __ __ __ __
 72
65
 73
2
 40
0.05077899396761251
 49
0.03385266264507501
 49
-0.0169263313225375
  0
LTYPE
  2
DIVIDE
 70
64
  3
__ . . __ . . 
 72
65
 73
6
 40
0.08463165661268751
 49
0.03385266264507501
 49
-0.0169263313225375
 49
0
 49
-0.0169263313225375
 49
0
 49
-0.0169263313225375
  0
LTYPE
  2
DOT
 70
64
  3
..............
 72
65
 73
4
 40
0.03385266264507501
 49
0
 49
-0.0169263313225375
 49
0
 49
-0.0169263313225375
  0
LTYPE
  2
HIDDEN
 70
64
  3
_ _ _ _ _ _ _
 72
65
 73
2
 40
0.02538949698380626
 49
0.0169263313225375
 49
-0.008463165661268751
  0
LTYPE
  2
PHANTOM
 70
64
  3
_____ _ _ _____ _ _ 
 72
65
 73
6
 40
0.169263313225375
 49
0.08463165661268751
 49
-0.0169263313225375
 49
0.0169263313225375
 49
-0.0169263313225375
 49
0.0169263313225375
 49
-0.0169263313225375
  0
ENDTAB
  0
TABLE
  2
LAYER
 70
2
  0
LAYER
  2
0
 70
0
 62
7
  6
CONTINUOUS
  0
ENDTAB
  0
TABLE
  2
STYLE
 70
4
  0
STYLE
  2
STANDARD
 70
0
 40
0
 41
1
 50
0
 71
0
 42
3.5
  3
txt
  4

  0
STYLE
  2
SIMPLEX
 70
0
 40
0
 41
1
 50
0
 71
0
 42
3.5
  3
simplex
  4

  0
STYLE
  2
COMPLEX
 70
0
 40
0
 41
1
 50
0
 71
0
 42
3.5
  3
complex
  4

  0
STYLE
  2
ITALIC
 70
0
 40
0
 41
1
 50
0
 71
0
 42
3.5
  3
italic
  4

  0
ENDTAB
  0
TABLE
  2
VIEW
 70
0
  0
ENDTAB
  0
ENDSEC
  0
SECTION
  2
BLOCKS
  0
BLOCK
  8
0
  2
*D0
 70
1
 10
0
 20
0
 30
0
  0
LINE
  8
0
 10
1.21512323761336
 20
-1.012499999999989
 30
0
 11
1.21512323761336
 21
1.012499999999999
 31
0
  0
LINE
  8
0
 10
0.05000000000000004
 20
-1.012499999999989
 30
0
 11
1.24512323761336
 21
-1.012499999999989
 31
0
  0
LINE
  8
0
 10
0.05000000000000004
 20
1.0125
 30
0
 11
1.24512323761336
 21
1.012499999999999
 31
0
  0
LINE
  8
0
 10
1.232800907143024
 20
0.9948223304703356
 30
0
 11
1.197445568083696
 21
1.030177669529663
 31
0
  0
LINE
  8
0
 10
1.197445568083696
 20
-0.9948223304703252
 30
0
 11
1.232800907143024
 21
-1.030177669529653
 31
0
  0
TEXT
  8
0
 62
7
 10
1.20012323761336
 20
-0.3233754048046449
 30
0
 40
0.05
  1
Durchmesser 2,03
 50
90
 41
0.9
  0
ENDBLK
  8
0
  0
BLOCK
  8
0
  2
*D1
 70
1
 10
0
 20
0
 30
0
  0
LINE
  8
0
 10
-1.10893326407369
 20
-0.9350000000000002
 30
0
 11
-1.10893326407369
 21
0.9350000000000002
 31
0
  0
LINE
  8
0
 10
-0.05000000000000004
 20
-0.9350000000000002
 30
0
 11
-1.13893326407369
 21
-0.9350000000000002
 31
0
  0
LINE
  8
0
 10
-0.05000000000000004
 20
0.9350000000000002
 30
0
 11
-1.13893326407369
 21
0.9350000000000002
 31
0
  0
LINE
  8
0
 10
-1.091255594544026
 20
0.9173223304703365
 30
0
 11
-1.126610933603354
 21
0.9526776695296638
 31
0
  0
LINE
  8
0
 10
-1.126610933603354
 20
-0.9173223304703365
 30
0
 11
-1.091255594544026
 21
-0.9526776695296638
 31
0
  0
TEXT
  8
0
 62
7
 10
-1.12393326407369
 20
-0.3235077742683131
 30
0
 40
0.05
  1
Durchmesser 1,87
 50
90
 41
0.9
  0
ENDBLK
  8
0
  0
ENDSEC
  0
SECTION
  2
ENTITIES
  0
POINT
  8
0
  6
DASHED
 10
0
 20
0
 30
0
  0
LINE
  8
0
  6
DASHED
 10
0.1283655711906013
 20
0.0341084449866903
 30
0
 11
0.0273299493304221
 21
0.08933891941886031
 31
0
  0
LINE
  8
0
  6
DASHED
 10
0.1549574066449313
 20
0.07737304523718012
 30
0
 11
-0.01024746742758543
 21
0.09286203780154029
 31
0
  0
LINE
  8
0
  6
DASHED
 10
0.2079187636965762
 20
0.16354054373492
 30
0
 11
-0.04615249180824867
 21
0.08123002002477007
 31
0
  0
LINE
  8
0
  6
DASHED
 10
0.3953878383006941
 20
0.46855050011821
 30
0
 11
-0.07452540388547187
 21
0.05634121785196112
 31
0
  0
LINE
  8
0
 10
-0.5585707352779918
 20
0.7340471341345111
 30
0
 11
-0.8158293837325973
 21
0.4618751634787203
 31
0
  0
LINE
  8
0
 10
-0.8034197653864722
 20
0.453148035443641
 30
0
 11
-0.9320001550788439
 21
0.1014000046006695
 31
0
  0
LINE
  8
0
 10
-0.9171502434376599
 20
0.09829492561838014
 30
0
 11
-0.8960679833361473
 21
-0.2756236913617795
 31
0
  0
LINE
  8
0
 10
-0.88120129222974
 20
-0.2725999706763105
 30
0
 11
-0.7138970188953226
 21
-0.6076654477690591
 31
0
  0
LINE
  8
0
 10
-0.7014398005715612
 20
-0.5990064003115604
 30
0
 11
-0.4152176643596313
 21
-0.8405358655070796
 31
0
  0
LINE
  8
0
 10
-0.4072029437696585
 20
-0.8276546526332205
 30
0
 11
-0.04877455632298189
 21
-0.9362303630279802
 31
0
  0
LINE
  8
0
 10
0.6375423974490915
 20
-0.6666079454184092
 30
0
 11
0.8625767013079058
 21
-0.3672433584978298
 31
0
  0
LINE
  8
0
 10
0.3217727765095652
 20
-0.8644586408483701
 30
0
 11
0.6468889629218575
 21
-0.6785579707363906
 31
0
  0
LINE
  8
0
 10
-0.0465103403197227
 20
-0.9212292058350303
 30
0
 11
0.3256285864026559
 21
-0.8791315451725096
 31
0
  0
LINE
  8
0
 10
0.8492647449331782
 20
-0.3599664629568288
 30
0
 11
0.9374914428291848
 21
0.004005573872529567
 31
0
  0
LINE
  8
0
 10
0.9223866142284243
 20
0.005421746241510847
 30
0
 11
0.8594070600499363
 21
0.3746007943615605
 31
0
  0
LINE
  8
0
 10
0.8449744756423917
 20
0.3699251234411495
 30
0
 11
0.6410669676201396
 21
0.6840609570983598
 31
0
  0
LINE
  8
0
 10
0.6296620331992473
 20
0.6740565149803698
 30
0
 11
0.5530917786956998
 21
0.7251329368904099
 31
0
  0
LINE
  8
0
 10
0.07782171410761113
 20
-0.04812580979310042
 30
0
 11
0.5901861000017198
 21
0.7854849568036099
 31
0
  0
LINE
  8
0
 10
-0.4152176643596313
 20
-0.8405358655070796
 30
0
 11
0.07782171410761113
 21
-0.04812580979310042
 31
0
  0
LINE
  8
0
 10
-0.3744285784620733
 20
0.2819419349542604
 30
0
 11
-0.5360616071485529
 21
0.4686629024313896
 31
0
  0
LINE
  8
0
 10
-0.5360616071485529
 20
0.4686629024313896
 30
0
 11
-0.3831583158354333
 21
0.4486532124103796
 31
0
  0
LINE
  8
0
 10
-0.3831583158354333
 20
0.4486532124103796
 30
0
 11
-0.3744285784620733
 21
0.2819419349542604
 31
0
  0
LINE
  8
0
 10
-0.5901861000017198
 20
0.7854849568036099
 30
0
 11
-0.06807136103720314
 21
-0.06398951835946901
 31
0
  0
LINE
  8
0
 10
-0.8158293837325973
 20
0.4618751634787203
 30
0
 11
-0.03719902128913236
 21
-0.08570065033864012
 31
0
  0
LINE
  8
0
 10
-0.9320001550788439
 20
0.1014000046006695
 30
0
 11
-0.0002557806004406302
 21
-0.0934253885708804
 31
0
  0
LINE
  8
0
 10
-0.8960679833361473
 20
-0.2756236913617795
 30
0
 11
0.03672920362433888
 21
-0.08590305148512925
 31
0
  0
LINE
  8
0
 10
-0.7138970188953226
 20
-0.6076654477690591
 30
0
 11
0.06793452934114066
 21
-0.06421214190277898
 31
0
  0
LINE
  8
0
 10
-0.04877455632298189
 20
-0.9362303630279802
 30
0
 11
0.09329164411081819
 21
0.005003777816300499
 31
0
  0
LINE
  8
0
 10
0.3256285864026559
 20
-0.8791315451725096
 30
0
 11
0.08369925619819971
 21
0.04150666410592021
 31
0
  0
LINE
  8
0
 10
0.6468889629218575
 20
-0.6785579707363906
 30
0
 11
0.06044710317423323
 21
0.07123563975410981
 31
0
  0
LINE
  8
0
 10
0.8625767013079058
 20
-0.3672433584978298
 30
0
 11
0.1283655711906013
 21
0.0341084449866903
 31
0
  0
LINE
  8
0
 10
0.9374914428291848
 20
0.004005573872529567
 30
0
 11
0.1549574066449313
 21
0.07737304523718012
 31
0
  0
LINE
  8
0
 10
0.8594070600499363
 20
0.3746007943615605
 30
0
 11
0.2079187636965762
 21
0.16354054373492
 31
0
  0
LINE
  8
0
 10
0.6410669676201396
 20
0.6840609570983598
 30
0
 11
0.3953878383006941
 21
0.46855050011821
 31
0
  0
LINE
  8
0
  6
DASHED
 10
0.318104389924898
 20
0.8818819916012106
 30
0
 11
-0.1039737716715408
 21
-0.00557672294369877
 31
0
  0
LINE
  8
0
  6
DASHED
 10
0.5530917786956998
 20
0.7251329368904099
 30
0
 11
0.318104389924898
 21
0.8818819916012106
 31
0
  0
LINE
  8
0
 10
1.079147779103212
 20
0
 30
0
 11
-1.070854913954538
 21
0
 31
0
  0
LINE
  8
0
 10
0
 20
1.101624631482411
 30
0
 11
0
 21
1.0125
 31
0
  0
LINE
  8
0
 10
0
 20
1.0125
 30
0
 11
0
 21
0.9350000000000002
 31
0
  0
LINE
  8
0
 10
0
 20
-1.012499999999989
 30
0
 11
0
 21
-1.10515630170889
 31
0
  0
LINE
  8
0
 10
0
 20
0.9350000000000002
 30
0
 11
0
 21
-0.9350000000000002
 31
0
  0
LINE
  8
0
 10
0
 20
-0.9350000000000002
 30
0
 11
0
 21
-1.012499999999989
 31
0
  0
LINE
  8
0
 10
-1.024182456824466
 20
-1.471177729543289
 30
0
 11
-1.024182456824466
 21
-1.38111000829506
 31
0
  0
LINE
  8
0
 10
-0.9674311731757481
 20
-1.38111000829506
 30
0
 11
-0.9674311731757481
 21
-1.471177729543289
 31
0
  0
LINE
  8
0
 10
-0.9674311731757481
 20
-1.471177729543289
 30
0
 11
-1.024182456824466
 21
-1.38111000829506
 31
0
  0
LINE
  8
0
 10
-0.9355560142373179
 20
-1.471177729543289
 30
0
 11
-0.886431173175748
 21
-1.471177729543289
 31
0
  0
LINE
  8
0
 10
-0.9355560142373179
 20
-1.38111000829508
 30
0
 11
-0.9355560142373179
 21
-1.471177729543289
 31
0
  0
LINE
  8
0
 10
-0.8582185305717865
 20
-1.42205738958519
 30
0
 11
-0.8582185305717865
 21
-1.38111000829508
 31
0
  0
LINE
  8
0
 10
-0.8582185305717865
 20
-1.42205738958519
 30
0
 11
-0.8258402070750853
 21
-1.42205738958519
 31
0
  0
LINE
  8
0
 10
-0.8225417773539958
 20
-1.471177729543289
 30
0
 11
-0.8582185305717865
 21
-1.471177729543289
 31
0
  0
LINE
  8
0
 10
-0.8130587919057872
 20
-1.466792342677889
 30
0
 11
-0.8225417773539958
 21
-1.471177729543289
 31
0
  0
LINE
  8
0
 10
-0.8091419066119161
 20
-1.462669305526289
 30
0
 11
-0.8130587919057872
 21
-1.466792342677889
 31
0
  0
LINE
  8
0
 10
-0.805431173175748
 20
-1.45380477565088
 30
0
 11
-0.8091419066119161
 21
-1.462669305526289
 31
0
  0
LINE
  8
0
 10
-0.8056373250331055
 20
-1.4416418160541
 30
0
 11
-0.805431173175748
 21
-1.45380477565088
 31
0
  0
LINE
  8
0
 10
-0.809348058469277
 20
-1.4311280713183
 30
0
 11
-0.8056373250331055
 21
-1.4416418160541
 31
0
  0
LINE
  8
0
 10
-0.8142957030510879
 20
-1.425974274878799
 30
0
 11
-0.809348058469277
 21
-1.4311280713183
 31
0
  0
LINE
  8
0
 10
-0.8228545594828064
 20
-1.42086313054825
 30
0
 11
-0.8142957030510879
 21
-1.425974274878799
 31
0
  0
LINE
  8
0
 10
-0.8228545594828064
 20
-1.42086313054825
 30
0
 11
-0.8258402070750853
 21
-1.42205738958519
 31
0
  0
LINE
  8
0
 10
-0.8258402070750853
 20
-1.42205738958519
 30
0
 11
-0.8228545594828064
 21
-1.42086313054825
 31
0
  0
LINE
  8
0
 10
-0.819655651347978
 20
-1.419583567294299
 30
0
 11
-0.8228545594828064
 21
-1.42086313054825
 31
0
  0
LINE
  8
0
 10
-0.8138833993360167
 20
-1.415666682000379
 30
0
 11
-0.819655651347978
 21
-1.419583567294299
 31
0
  0
LINE
  8
0
 10
-0.8091419066119161
 20
-1.406596000267289
 30
0
 11
-0.8138833993360167
 21
-1.415666682000379
 31
0
  0
LINE
  8
0
 10
-0.8097603621846975
 20
-1.398143774106949
 30
0
 11
-0.8091419066119161
 21
-1.406596000267289
 31
0
  0
LINE
  8
0
 10
-0.8118218807602279
 20
-1.390103851661799
 30
0
 11
-0.8097603621846975
 21
-1.398143774106949
 31
0
  0
LINE
  8
0
 10
-0.8178002846298879
 20
-1.383713144076999
 30
0
 11
-0.8118218807602279
 21
-1.390103851661799
 31
0
  0
LINE
  8
0
 10
-0.8279017256506158
 20
-1.38111000829508
 30
0
 11
-0.8178002846298879
 21
-1.383713144076999
 31
0
  0
LINE
  8
0
 10
-0.8582185305717865
 20
-1.38111000829508
 30
0
 11
-0.8279017256506158
 21
-1.38111000829508
 31
0
  0
LINE
  8
0
 10
-0.8582185305717865
 20
-1.471177729543289
 30
0
 11
-0.8582185305717865
 21
-1.42205738958519
 31
0
  0
LINE
  8
0
 10
-0.6744872021497577
 20
-1.471177729543289
 30
0
 11
-0.6434311731757479
 21
-1.471177729543289
 31
0
  0
LINE
  8
0
 10
-0.681786084534775
 20
-1.469226466224409
 30
0
 11
-0.6744872021497577
 21
-1.471177729543289
 31
0
  0
LINE
  8
0
 10
-0.6860795447617966
 20
-1.466793505429339
 30
0
 11
-0.681786084534775
 21
-1.469226466224409
 31
0
  0
LINE
  8
0
 10
-0.6900867743077653
 20
-1.46250004520234
 30
0
 11
-0.6860795447617966
 21
-1.466793505429339
 31
0
  0
LINE
  8
0
 10
-0.6920903890807567
 20
-1.453340663384839
 30
0
 11
-0.6900867743077653
 21
-1.46250004520234
 31
0
  0
LINE
  8
0
 10
-0.6920903890807567
 20
-1.425576287250689
 30
0
 11
-0.6920903890807567
 21
-1.453340663384839
 31
0
  0
LINE
  8
0
 10
-0.6902298896497778
 20
-1.41698936679701
 30
0
 11
-0.6920903890807567
 21
-1.425576287250689
 31
0
  0
LINE
  8
0
 10
-0.6862226601037256
 20
-1.4121234452065
 30
0
 11
-0.6902298896497778
 21
-1.41698936679701
 31
0
  0
LINE
  8
0
 10
-0.681786084534775
 20
-1.409976715093009
 30
0
 11
-0.6862226601037256
 21
-1.4121234452065
 31
0
  0
LINE
  8
0
 10
-0.6739147407847668
 20
-1.408034876959009
 30
0
 11
-0.681786084534775
 21
-1.409976715093009
 31
0
  0
LINE
  8
0
 10
-0.6435742885147083
 20
-1.408034876959009
 30
0
 11
-0.6739147407847668
 21
-1.408034876959009
 31
0
  0
LINE
  8
0
 10
-0.5663961745903362
 20
-1.455484264686109
 30
0
 11
-0.566280444375705
 21
-1.408034876959009
 31
0
  0
LINE
  8
0
 10
-0.5704998378067357
 20
-1.46451552938774
 30
0
 11
-0.5663961745903362
 21
-1.455484264686109
 31
0
  0
LINE
  8
0
 10
-0.5764217934997868
 20
-1.468882971711999
 30
0
 11
-0.5704998378067357
 21
-1.46451552938774
 31
0
  0
LINE
  8
0
 10
-0.5846385070267679
 20
-1.471177729543289
 30
0
 11
-0.5764217934997868
 21
-1.468882971711999
 31
0
  0
LINE
  8
0
 10
-0.5967044917507484
 20
-1.471177729543289
 30
0
 11
-0.5846385070267679
 21
-1.471177729543289
 31
0
  0
LINE
  8
0
 10
-0.6049212052777256
 20
-1.46880894726581
 30
0
 11
-0.5967044917507484
 21
-1.471177729543289
 31
0
  0
LINE
  8
0
 10
-0.6110652343087458
 20
-1.46421943160322
 30
0
 11
-0.6049212052777256
 21
-1.46880894726581
 31
0
  0
LINE
  8
0
 10
-0.614914505511755
 20
-1.455410522508741
 30
0
 11
-0.6110652343087458
 21
-1.46421943160322
 31
0
  0
LINE
  8
0
 10
-0.6149885299567867
 20
-1.42365403510119
 30
0
 11
-0.614914505511755
 21
-1.455410522508741
 31
0
  0
LINE
  8
0
 10
-0.6108431609707768
 20
-1.41484512600672
 30
0
 11
-0.6149885299567867
 21
-1.42365403510119
 31
0
  0
LINE
  8
0
 10
-0.6049212052777256
 20
-1.41025561034412
 30
0
 11
-0.6108431609707768
 21
-1.41484512600672
 31
0
  0
LINE
  8
0
 10
-0.5965564428606848
 20
-1.408034876959009
 30
0
 11
-0.6049212052777256
 21
-1.41025561034412
 31
0
  0
LINE
  8
0
 10
-0.566280444375705
 20
-1.408034876959009
 30
0
 11
-0.5965564428606848
 21
-1.408034876959009
 31
0
  0
LINE
  8
0
 10
-0.566428493268726
 20
-1.468734922819629
 30
0
 11
-0.5663961745903362
 21
-1.455484264686109
 31
0
  0
LINE
  8
0
 10
-0.5643558087757264
 20
-1.471177729543289
 30
0
 11
-0.566428493268726
 21
-1.468734922819629
 31
0
  0
LINE
  8
0
 10
-0.562431173175748
 20
-1.471177729543289
 30
0
 11
-0.5643558087757264
 21
-1.471177729543289
 31
0
  0
LINE
  8
0
 10
-0.5369669714062767
 20
-1.46962356565841
 30
0
 11
-0.5369669714062767
 21
-1.470523632991639
 31
0
  0
LINE
  8
0
 10
-0.5358668891092567
 20
-1.46962356565841
 30
0
 11
-0.5369669714062767
 21
-1.46962356565841
 31
0
  0
LINE
  8
0
 10
-0.5358668891092567
 20
-1.470523632991639
 30
0
 11
-0.5358668891092567
 21
-1.46962356565841
 31
0
  0
LINE
  8
0
 10
-0.5369669714062767
 20
-1.470523632991639
 30
0
 11
-0.5358668891092567
 21
-1.470523632991639
 31
0
  0
LINE
  8
0
 10
-0.5375911731757478
 20
-1.46901772954329
 30
0
 11
-0.5375911731757478
 21
-1.471177729543289
 31
0
  0
LINE
  8
0
 10
-0.535431173175748
 20
-1.46901772954329
 30
0
 11
-0.5375911731757478
 21
-1.46901772954329
 31
0
  0
LINE
  8
0
 10
-0.535431173175748
 20
-1.471177729543289
 30
0
 11
-0.535431173175748
 21
-1.46901772954329
 31
0
  0
LINE
  8
0
 10
-0.5375911731757478
 20
-1.471177729543289
 30
0
 11
-0.535431173175748
 21
-1.471177729543289
 31
0
  0
LINE
  8
0
 10
-0.373431173175748
 20
-1.38111000829508
 30
0
 11
-0.4134359694670966
 21
-1.471177729543289
 31
0
  0
LINE
  8
0
 10
-0.421840214845408
 20
-1.38111000829508
 30
0
 11
-0.373431173175748
 21
-1.38111000829508
 31
0
  0
LINE
  8
0
 10
-0.421840214845408
 20
-1.390527314636469
 30
0
 11
-0.421840214845408
 21
-1.38111000829508
 31
0
  0
LINE
  8
0
 10
-0.3411134138083471
 20
-1.471177729543289
 30
0
 11
-0.292710769932135
 21
-1.471177729543289
 31
0
  0
LINE
  8
0
 10
-0.2967649229008857
 20
-1.41309839115939
 30
0
 11
-0.3411134138083471
 21
-1.471177729543289
 31
0
  0
LINE
  8
0
 10
-0.292431173175748
 20
-1.4034523030612
 30
0
 11
-0.2967649229008857
 21
-1.41309839115939
 31
0
  0
LINE
  8
0
 10
-0.292431173175748
 20
-1.3950644003671
 30
0
 11
-0.292431173175748
 21
-1.4034523030612
 31
0
  0
LINE
  8
0
 10
-0.2966251245226849
 20
-1.38807448145528
 30
0
 11
-0.292431173175748
 21
-1.3950644003671
 31
0
  0
LINE
  8
0
 10
-0.3024966564085653
 20
-1.383461134973779
 30
0
 11
-0.2966251245226849
 21
-1.38807448145528
 31
0
  0
LINE
  8
0
 10
-0.3107447607245158
 20
-1.38111000829508
 30
0
 11
-0.3024966564085653
 21
-1.383461134973779
 31
0
  0
LINE
  8
0
 10
-0.3229072196308371
 20
-1.38111000829508
 30
0
 11
-0.3107447607245158
 21
-1.38111000829508
 31
0
  0
LINE
  8
0
 10
-0.3314349207031773
 20
-1.38374073173019
 30
0
 11
-0.3229072196308371
 21
-1.38111000829508
 31
0
  0
LINE
  8
0
 10
-0.3364676623195373
 20
-1.388214279833779
 30
0
 11
-0.3314349207031773
 21
-1.38374073173019
 31
0
  0
LINE
  8
0
 10
-0.3411134138083471
 20
-1.39520419874529
 30
0
 11
-0.3364676623195373
 21
-1.388214279833779
 31
0
  0
LINE
  8
0
 10
-0.1614872021497576
 20
-1.471177729543289
 30
0
 11
-0.130431173175748
 21
-1.471177729543289
 31
0
  0
LINE
  8
0
 10
-0.168786084534775
 20
-1.469226466224409
 30
0
 11
-0.1614872021497576
 21
-1.471177729543289
 31
0
  0
LINE
  8
0
 10
-0.1730795447617966
 20
-1.466793505429339
 30
0
 11
-0.168786084534775
 21
-1.469226466224409
 31
0
  0
LINE
  8
0
 10
-0.1770867743077652
 20
-1.46250004520234
 30
0
 11
-0.1730795447617966
 21
-1.466793505429339
 31
0
  0
LINE
  8
0
 10
-0.1790903890807567
 20
-1.453340663384839
 30
0
 11
-0.1770867743077652
 21
-1.46250004520234
 31
0
  0
LINE
  8
0
 10
-0.1790903890807567
 20
-1.425576287250689
 30
0
 11
-0.1790903890807567
 21
-1.453340663384839
 31
0
  0
LINE
  8
0
 10
-0.1772298896497778
 20
-1.41698936679701
 30
0
 11
-0.1790903890807567
 21
-1.425576287250689
 31
0
  0
LINE
  8
0
 10
-0.1732226601037255
 20
-1.4121234452065
 30
0
 11
-0.1772298896497778
 21
-1.41698936679701
 31
0
  0
LINE
  8
0
 10
-0.168786084534775
 20
-1.409976715093009
 30
0
 11
-0.1732226601037255
 21
-1.4121234452065
 31
0
  0
LINE
  8
0
 10
-0.1609147407847668
 20
-1.408034876959009
 30
0
 11
-0.168786084534775
 21
-1.409976715093009
 31
0
  0
LINE
  8
0
 10
-0.1305742885147083
 20
-1.408034876959009
 30
0
 11
-0.1609147407847668
 21
-1.408034876959009
 31
0
  0
LINE
  8
0
 10
-0.07845582422171629
 20
-1.471177729543289
 30
0
 11
-0.07845582422171629
 21
-1.408034876959009
 31
0
  0
LINE
  8
0
 10
-0.04943117317574799
 20
-1.41893186668964
 30
0
 11
-0.04943117317574799
 21
-1.471177729543289
 31
0
  0
LINE
  8
0
 10
-0.05267868657977669
 20
-1.41385762699634
 30
0
 11
-0.04943117317574799
 21
-1.41893186668964
 31
0
  0
LINE
  8
0
 10
-0.05592619998371811
 20
-1.41020417441712
 30
0
 11
-0.05267868657977669
 21
-1.41385762699634
 31
0
  0
LINE
  8
0
 10
-0.06201528761774534
 20
-1.408034876959009
 30
0
 11
-0.05592619998371811
 21
-1.41020417441712
 31
0
  0
LINE
  8
0
 10
-0.1060596881557467
 20
-1.408034876959009
 30
0
 11
-0.06201528761774534
 21
-1.408034876959009
 31
0
  0
LINE
  8
0
 10
-0.1068715665067757
 20
-1.471177729543289
 30
0
 11
-0.1060596881557467
 21
-1.408034876959009
 31
0
  0
LINE
  8
0
 10
0.09482252455421258
 20
-1.408034876959009
 30
0
 11
0.0636097086061236
 21
-1.408034876959009
 31
0
  0
LINE
  8
0
 10
0.1018351762581733
 20
-1.4104060611157
 30
0
 11
0.09482252455421258
 21
-1.408034876959009
 31
0
  0
LINE
  8
0
 10
0.1062717518272138
 20
-1.41269590657005
 30
0
 11
0.1018351762581733
 21
-1.4104060611157
 31
0
  0
LINE
  8
0
 10
0.1095634046661726
 20
-1.4168462514562
 30
0
 11
0.1062717518272138
 21
-1.41269590657005
 31
0
  0
LINE
  8
0
 10
0.112568826824252
 20
-1.425719402591809
 30
0
 11
0.1095634046661726
 21
-1.4168462514562
 31
0
  0
LINE
  8
0
 10
0.112568826824252
 20
-1.453197548044031
 30
0
 11
0.112568826824252
 21
-1.425719402591809
 31
0
  0
LINE
  8
0
 10
0.1105652120541527
 20
-1.46221381452071
 30
0
 11
0.112568826824252
 21
-1.453197548044031
 31
0
  0
LINE
  8
0
 10
0.105699290462213
 20
-1.466507274747699
 30
0
 11
0.1105652120541527
 21
-1.46221381452071
 31
0
  0
LINE
  8
0
 10
0.1024076376231642
 20
-1.46879712020202
 30
0
 11
0.105699290462213
 21
-1.466507274747699
 31
0
  0
LINE
  8
0
 10
0.09425006318913438
 20
-1.471177729543289
 30
0
 11
0.1024076376231642
 21
-1.46879712020202
 31
0
  0
LINE
  8
0
 10
0.06390961091916324
 20
-1.471177729543289
 30
0
 11
0.09425006318913438
 21
-1.471177729543289
 31
0
  0
LINE
  8
0
 10
0.06348026489617405
 20
-1.380781185549989
 30
0
 11
0.06390961091916324
 21
-1.471177729543289
 31
0
  0
LINE
  8
0
 10
0.193568826824252
 20
-1.43945847531762
 30
0
 11
0.1450527262582946
 21
-1.439601590658369
 31
0
  0
LINE
  8
0
 10
0.193568826824252
 20
-1.42586251793231
 30
0
 11
0.193568826824252
 21
-1.43945847531762
 31
0
  0
LINE
  8
0
 10
0.1919945580743333
 20
-1.417418712819399
 30
0
 11
0.193568826824252
 21
-1.42586251793231
 31
0
  0
LINE
  8
0
 10
0.187987328528372
 20
-1.413125252592419
 30
0
 11
0.1919945580743333
 21
-1.417418712819399
 31
0
  0
LINE
  8
0
 10
0.1831214069393136
 20
-1.40997671509274
 30
0
 11
0.187987328528372
 21
-1.413125252592419
 31
0
  0
LINE
  8
0
 10
0.1756794092122836
 20
-1.408034876959009
 30
0
 11
0.1831214069393136
 21
-1.40997671509274
 31
0
  0
LINE
  8
0
 10
0.163085259212352
 20
-1.408034876959009
 30
0
 11
0.1756794092122836
 21
-1.408034876959009
 31
0
  0
LINE
  8
0
 10
0.1552139154623437
 20
-1.40997671509274
 30
0
 11
0.163085259212352
 21
-1.408034876959009
 31
0
  0
LINE
  8
0
 10
0.1513498012583041
 20
-1.41283902191054
 30
0
 11
0.1552139154623437
 21
-1.40997671509274
 31
0
  0
LINE
  8
0
 10
0.1474856870543445
 20
-1.416560020773979
 30
0
 11
0.1513498012583041
 21
-1.41283902191054
 31
0
  0
LINE
  8
0
 10
0.1450527262582946
 20
-1.426005633273129
 30
0
 11
0.1474856870543445
 21
-1.416560020773979
 31
0
  0
LINE
  8
0
 10
0.1450527262582946
 20
-1.45262508668024
 30
0
 11
0.1450527262582946
 21
-1.426005633273129
 31
0
  0
LINE
  8
0
 10
0.1477719177382824
 20
-1.46178446849769
 30
0
 11
0.1450527262582946
 21
-1.45262508668024
 31
0
  0
LINE
  8
0
 10
0.1504911092153015
 20
-1.46607792872445
 30
0
 11
0.1477719177382824
 21
-1.46178446849769
 31
0
  0
LINE
  8
0
 10
0.1553570308042727
 20
-1.46879712020139
 30
0
 11
0.1504911092153015
 21
-1.46607792872445
 31
0
  0
LINE
  8
0
 10
0.1636577205772637
 20
-1.471177729543289
 30
0
 11
0.1553570308042727
 21
-1.46879712020139
 31
0
  0
LINE
  8
0
 10
0.193568826824252
 20
-1.471177729543289
 30
0
 11
0.1636577205772637
 21
-1.471177729543289
 31
0
  0
LINE
  8
0
 10
0.220149152570204
 20
-1.471177729543289
 30
0
 11
0.220149152570204
 21
-1.408034876959009
 31
0
  0
LINE
  8
0
 10
0.220568826824252
 20
-1.380971391787649
 30
0
 11
0.220568826824252
 21
-1.38572769998319
 31
0
  0
LINE
  8
0
 10
0.3742649280990845
 20
-1.385665789390599
 30
0
 11
0.3799465430161217
 21
-1.39014552422885
 31
0
  0
LINE
  8
0
 10
0.3688018368328339
 20
-1.38380833835978
 30
0
 11
0.3742649280990845
 21
-1.385665789390599
 31
0
  0
LINE
  8
0
 10
0.3580941779503219
 20
-1.38111000829508
 30
0
 11
0.3688018368328339
 21
-1.38380833835978
 31
0
  0
LINE
  8
0
 10
0.3498995410507232
 20
-1.38111000829508
 30
0
 11
0.3580941779503219
 21
-1.38111000829508
 31
0
  0
LINE
  8
0
 10
0.3360232892338245
 20
-1.385775051215749
 30
0
 11
0.3498995410507232
 21
-1.38111000829508
 31
0
  0
LINE
  8
0
 10
0.3294675797140226
 20
-1.39036404787959
 30
0
 11
0.3360232892338245
 21
-1.385775051215749
 31
0
  0
LINE
  8
0
 10
0.3278286523342249
 20
-1.39713828105008
 30
0
 11
0.3294675797140226
 21
-1.39036404787959
 31
0
  0
LINE
  8
0
 10
0.3275008668583141
 20
-1.402164325015299
 30
0
 11
0.3278286523342249
 21
-1.39713828105008
 31
0
  0
LINE
  8
0
 10
0.3296861033647147
 20
-1.40839224905887
 30
0
 11
0.3275008668583141
 21
-1.402164325015299
 31
0
  0
LINE
  8
0
 10
0.3350399328058447
 20
-1.41221641294537
 30
0
 11
0.3296861033647147
 21
-1.40839224905887
 31
0
  0
LINE
  8
0
 10
0.3700037169112438
 20
-1.42871494857009
 30
0
 11
0.3350399328058447
 21
-1.41221641294537
 31
0
  0
LINE
  8
0
 10
0.3759038554789731
 20
-1.43308542158349
 30
0
 11
0.3700037169112438
 21
-1.42871494857009
 31
0
  0
LINE
  8
0
 10
0.3800558048416025
 20
-1.43964113110299
 30
0
 11
0.3759038554789731
 21
-1.43308542158349
 31
0
  0
LINE
  8
0
 10
0.3820225176976537
 20
-1.44619684062279
 30
0
 11
0.3800558048416025
 21
-1.43964113110299
 31
0
  0
LINE
  8
0
 10
0.382568826824252
 20
-1.451441408238699
 30
0
 11
0.3820225176976537
 21
-1.44619684062279
 31
0
  0
LINE
  8
0
 10
0.3802743284922944
 20
-1.457341546806379
 30
0
 11
0.382568826824252
 21
-1.451441408238699
 31
0
  0
LINE
  8
0
 10
0.376559426431053
 20
-1.464443565452779
 30
0
 11
0.3802743284922944
 21
-1.457341546806379
 31
0
  0
LINE
  8
0
 10
0.3704407642126317
 20
-1.46881403846588
 30
0
 11
0.376559426431053
 21
-1.464443565452779
 31
0
  0
LINE
  8
0
 10
0.3606071999329724
 20
-1.471177729543289
 30
0
 11
0.3704407642126317
 21
-1.46881403846588
 31
0
  0
LINE
  8
0
 10
0.347605042718842
 20
-1.471177729543289
 30
0
 11
0.3606071999329724
 21
-1.471177729543289
 31
0
  0
LINE
  8
0
 10
0.3380992639150027
 20
-1.469032562116599
 30
0
 11
0.347605042718842
 21
-1.471177729543289
 31
0
  0
LINE
  8
0
 10
0.3296861033647147
 20
-1.46477135092869
 30
0
 11
0.3380992639150027
 21
-1.469032562116599
 31
0
  0
LINE
  8
0
 10
0.3254513323717148
 20
-1.45996383061419
 30
0
 11
0.3296861033647147
 21
-1.46477135092869
 31
0
  0
LINE
  8
0
 10
0.4105665940012223
 20
-1.471177729543289
 30
0
 11
0.4105665940012223
 21
-1.3809017081233
 31
0
  0
LINE
  8
0
 10
0.4030383677841746
 20
-1.408034876959009
 30
0
 11
0.4230688268242521
 21
-1.408034876959009
 31
0
  0
LINE
  8
0
 10
0.504068826824252
 20
-1.43945847531762
 30
0
 11
0.4555527262582946
 21
-1.439601590658369
 31
0
  0
LINE
  8
0
 10
0.504068826824252
 20
-1.42586251793231
 30
0
 11
0.504068826824252
 21
-1.43945847531762
 31
0
  0
LINE
  8
0
 10
0.5024945580743334
 20
-1.417418712819399
 30
0
 11
0.504068826824252
 21
-1.42586251793231
 31
0
  0
LINE
  8
0
 10
0.4984873285283722
 20
-1.413125252592419
 30
0
 11
0.5024945580743334
 21
-1.417418712819399
 31
0
  0
LINE
  8
0
 10
0.4936214069393137
 20
-1.40997671509274
 30
0
 11
0.4984873285283722
 21
-1.413125252592419
 31
0
  0
LINE
  8
0
 10
0.4861794092122836
 20
-1.408034876959009
 30
0
 11
0.4936214069393137
 21
-1.40997671509274
 31
0
  0
LINE
  8
0
 10
0.4735852592123521
 20
-1.408034876959009
 30
0
 11
0.4861794092122836
 21
-1.408034876959009
 31
0
  0
LINE
  8
0
 10
0.4657139154623438
 20
-1.40997671509274
 30
0
 11
0.4735852592123521
 21
-1.408034876959009
 31
0
  0
LINE
  8
0
 10
0.4618498012583042
 20
-1.41283902191054
 30
0
 11
0.4657139154623438
 21
-1.40997671509274
 31
0
  0
LINE
  8
0
 10
0.4579856870543445
 20
-1.416560020773979
 30
0
 11
0.4618498012583042
 21
-1.41283902191054
 31
0
  0
LINE
  8
0
 10
0.4555527262582946
 20
-1.426005633273129
 30
0
 11
0.4579856870543445
 21
-1.416560020773979
 31
0
  0
LINE
  8
0
 10
0.4555527262582946
 20
-1.45262508668024
 30
0
 11
0.4555527262582946
 21
-1.426005633273129
 31
0
  0
LINE
  8
0
 10
0.4582719177382824
 20
-1.46178446849769
 30
0
 11
0.4555527262582946
 21
-1.45262508668024
 31
0
  0
LINE
  8
0
 10
0.4609911092153015
 20
-1.46607792872445
 30
0
 11
0.4582719177382824
 21
-1.46178446849769
 31
0
  0
LINE
  8
0
 10
0.4658570308042727
 20
-1.46879712020139
 30
0
 11
0.4609911092153015
 21
-1.46607792872445
 31
0
  0
LINE
  8
0
 10
0.4741577205772628
 20
-1.471177729543289
 30
0
 11
0.4658570308042727
 21
-1.46879712020139
 31
0
  0
LINE
  8
0
 10
0.504068826824252
 20
-1.471177729543289
 30
0
 11
0.4741577205772628
 21
-1.471177729543289
 31
0
  0
LINE
  8
0
 10
0.5306491525702041
 20
-1.471177729543289
 30
0
 11
0.5306491525702041
 21
-1.408034876959009
 31
0
  0
LINE
  8
0
 10
0.5310688268242518
 20
-1.380971391787649
 30
0
 11
0.5310688268242518
 21
-1.38572769998319
 31
0
  0
LINE
  8
0
 10
0.6116628876472533
 20
-1.41974374504062
 30
0
 11
0.612068826824252
 21
-1.471177729543289
 31
0
  0
LINE
  8
0
 10
0.6090242830072822
 20
-1.41507544452279
 30
0
 11
0.6116628876472533
 21
-1.41974374504062
 31
0
  0
LINE
  8
0
 10
0.6055738000162819
 20
-1.41121902235571
 30
0
 11
0.6090242830072822
 21
-1.41507544452279
 31
0
  0
LINE
  8
0
 10
0.5990787732082246
 20
-1.408034876959009
 30
0
 11
0.6055738000162819
 21
-1.41121902235571
 31
0
  0
LINE
  8
0
 10
0.5631531561802549
 20
-1.408034876959009
 30
0
 11
0.5990787732082246
 21
-1.408034876959009
 31
0
  0
LINE
  8
0
 10
0.5625442474162846
 20
-1.471177729543289
 30
0
 11
0.5631531561802549
 21
-1.408034876959009
 31
0
  0
LINE
  8
0
 10
0.6882292528282524
 20
-1.41477872609831
 30
0
 11
0.6925310963812845
 21
-1.4216347892596
 31
0
  0
LINE
  8
0
 10
0.6821797853332829
 20
-1.410208017323839
 30
0
 11
0.6882292528282524
 21
-1.41477872609831
 31
0
  0
LINE
  8
0
 10
0.6726350699512733
 20
-1.408034876959009
 30
0
 11
0.6821797853332829
 21
-1.410208017323839
 31
0
  0
LINE
  8
0
 10
0.6649724111242432
 20
-1.408034876959009
 30
0
 11
0.6726350699512733
 21
-1.408034876959009
 31
0
  0
LINE
  8
0
 10
0.6558309935753023
 20
-1.410208017323839
 30
0
 11
0.6649724111242432
 21
-1.408034876959009
 31
0
  0
LINE
  8
0
 10
0.6507225543562926
 20
-1.414509860876189
 30
0
 11
0.6558309935753023
 21
-1.410208017323839
 31
0
  0
LINE
  8
0
 10
0.6462862781932927
 20
-1.41881170442863
 30
0
 11
0.6507225543562926
 21
-1.414509860876189
 31
0
  0
LINE
  8
0
 10
0.6438664911952547
 20
-1.423382413202789
 30
0
 11
0.6462862781932927
 21
-1.41881170442863
 31
0
  0
LINE
  8
0
 10
0.6435976259722338
 20
-1.42835641981036
 30
0
 11
0.6438664911952547
 21
-1.423382413202789
 31
0
  0
LINE
  8
0
 10
0.6457485477503252
 20
-1.43306156119574
 30
0
 11
0.6435976259722338
 21
-1.42835641981036
 31
0
  0
LINE
  8
0
 10
0.6497815260802418
 20
-1.434943617749779
 30
0
 11
0.6457485477503252
 21
-1.43306156119574
 31
0
  0
LINE
  8
0
 10
0.6859438984402841
 20
-1.44462276574241
 30
0
 11
0.6497815260802418
 21
-1.434943617749779
 31
0
  0
LINE
  8
0
 10
0.6901113093833229
 20
-1.446101524463509
 30
0
 11
0.6859438984402841
 21
-1.44462276574241
 31
0
  0
LINE
  8
0
 10
0.6930688268242521
 20
-1.451209963681929
 30
0
 11
0.6901113093833229
 21
-1.446101524463509
 31
0
  0
LINE
  8
0
 10
0.6923966637682425
 20
-1.455511807234299
 30
0
 11
0.6930688268242521
 21
-1.451209963681929
 31
0
  0
LINE
  8
0
 10
0.6907834724362729
 20
-1.45994808339765
 30
0
 11
0.6923966637682425
 21
-1.455511807234299
 31
0
  0
LINE
  8
0
 10
0.6872882245522925
 20
-1.464115494339099
 30
0
 11
0.6907834724362729
 21
-1.45994808339765
 31
0
  0
LINE
  8
0
 10
0.680969891834302
 20
-1.46908950094634
 30
0
 11
0.6872882245522925
 21
-1.464115494339099
 31
0
  0
LINE
  8
0
 10
0.6731728003943245
 20
-1.471177729543289
 30
0
 11
0.680969891834302
 21
-1.46908950094634
 31
0
  0
LINE
  8
0
 10
0.6638969502353321
 20
-1.471177729543289
 30
0
 11
0.6731728003943245
 21
-1.471177729543289
 31
0
  0
LINE
  8
0
 10
0.6543522348533115
 20
-1.46922393355752
 30
0
 11
0.6638969502353321
 21
-1.471177729543289
 31
0
  0
LINE
  8
0
 10
0.6483027673582547
 20
-1.46478765739421
 30
0
 11
0.6543522348533115
 21
-1.46922393355752
 31
0
  0
LINE
  8
0
 10
0.6438664911952547
 20
-1.45779716162144
 30
0
 11
0.6483027673582547
 21
-1.46478765739421
 31
0
  0
LINE
  8
0
 10
0.7210665940012223
 20
-1.471177729543289
 30
0
 11
0.7210665940012223
 21
-1.3809017081233
 31
0
  0
LINE
  8
0
 10
0.7135383677841746
 20
-1.408034876959009
 30
0
 11
0.7335688268242521
 21
-1.408034876959009
 31
0
  0
LINE
  8
0
 10
0.7837252081462321
 20
-1.471177729543289
 30
0
 11
0.814568826824252
 21
-1.471177729543289
 31
0
  0
LINE
  8
0
 10
0.7764929113552826
 20
-1.46866992728892
 30
0
 11
0.7837252081462321
 21
-1.471177729543289
 31
0
  0
LINE
  8
0
 10
0.7713877606762725
 20
-1.46696821039631
 30
0
 11
0.7764929113552826
 21
-1.46866992728892
 31
0
  0
LINE
  8
0
 10
0.768197041505253
 20
-1.462713918165429
 30
0
 11
0.7713877606762725
 21
-1.46696821039631
 31
0
  0
LINE
  8
0
 10
0.7656444661642636
 20
-1.45356718986849
 30
0
 11
0.768197041505253
 21
-1.462713918165429
 31
0
  0
LINE
  8
0
 10
0.7656444661642636
 20
-1.408034876959009
 30
0
 11
0.7656444661642636
 21
-1.45356718986849
 31
0
  0
LINE
  8
0
 10
0.814568826824252
 20
-1.408034876959009
 30
0
 11
0.814568826824252
 21
-1.471177729543289
 31
0
  0
LINE
  8
0
 10
0.8305961035312248
 20
-1.412552791228889
 30
0
 11
0.8546394808012737
 21
-1.412552791228889
 31
0
  0
LINE
  8
0
 10
0.8387536779622933
 20
-1.396523873048249
 30
0
 11
0.8388967933043023
 21
-1.471177729543289
 31
0
  0
LINE
  8
0
 10
0.8410435234162433
 20
-1.38808006793536
 30
0
 11
0.8387536779622933
 21
-1.396523873048249
 31
0
  0
LINE
  8
0
 10
0.8451938683043118
 20
-1.3829279156632
 30
0
 11
0.8410435234162433
 21
-1.38808006793536
 31
0
  0
LINE
  8
0
 10
0.8502029052352846
 20
-1.3812105315724
 30
0
 11
0.8451938683043118
 21
-1.3829279156632
 31
0
  0
LINE
  8
0
 10
0.8550688268242521
 20
-1.38135364691322
 30
0
 11
0.8502029052352846
 21
-1.3812105315724
 31
0
  0
LINE
  8
0
 10
0.9360688268242521
 20
-1.43945847531762
 30
0
 11
0.8875527262582946
 21
-1.439601590658369
 31
0
  0
LINE
  8
0
 10
0.9360688268242521
 20
-1.42586251793231
 30
0
 11
0.9360688268242521
 21
-1.43945847531762
 31
0
  0
LINE
  8
0
 10
0.9344945580743333
 20
-1.417418712819399
 30
0
 11
0.9360688268242521
 21
-1.42586251793231
 31
0
  0
LINE
  8
0
 10
0.930487328528372
 20
-1.413125252592419
 30
0
 11
0.9344945580743333
 21
-1.417418712819399
 31
0
  0
LINE
  8
0
 10
0.9256214069393137
 20
-1.40997671509274
 30
0
 11
0.930487328528372
 21
-1.413125252592419
 31
0
  0
LINE
  8
0
 10
0.9181794092122837
 20
-1.408034876959009
 30
0
 11
0.9256214069393137
 21
-1.40997671509274
 31
0
  0
LINE
  8
0
 10
0.905585259212352
 20
-1.408034876959009
 30
0
 11
0.9181794092122837
 21
-1.408034876959009
 31
0
  0
LINE
  8
0
 10
0.8977139154623437
 20
-1.40997671509274
 30
0
 11
0.905585259212352
 21
-1.408034876959009
 31
0
  0
LINE
  8
0
 10
0.8938498012583039
 20
-1.41283902191054
 30
0
 11
0.8977139154623437
 21
-1.40997671509274
 31
0
  0
LINE
  8
0
 10
0.8899856870543446
 20
-1.416560020773979
 30
0
 11
0.8938498012583039
 21
-1.41283902191054
 31
0
  0
LINE
  8
0
 10
0.8875527262582946
 20
-1.426005633273129
 30
0
 11
0.8899856870543446
 21
-1.416560020773979
 31
0
  0
LINE
  8
0
 10
0.8875527262582946
 20
-1.45262508668024
 30
0
 11
0.8875527262582946
 21
-1.426005633273129
 31
0
  0
LINE
  8
0
 10
0.8902719177382824
 20
-1.46178446849769
 30
0
 11
0.8875527262582946
 21
-1.45262508668024
 31
0
  0
LINE
  8
0
 10
0.8929911092153018
 20
-1.46607792872445
 30
0
 11
0.8902719177382824
 21
-1.46178446849769
 31
0
  0
LINE
  8
0
 10
0.8978570308042727
 20
-1.46879712020139
 30
0
 11
0.8929911092153018
 21
-1.46607792872445
 31
0
  0
LINE
  8
0
 10
0.906157720577263
 20
-1.471177729543289
 30
0
 11
0.8978570308042727
 21
-1.46879712020139
 31
0
  0
LINE
  8
0
 10
0.9360688268242521
 20
-1.471177729543289
 30
0
 11
0.906157720577263
 21
-1.471177729543289
 31
0
  0
LINE
  8
0
 10
1.016662887647253
 20
-1.41974374504062
 30
0
 11
1.017068826824252
 21
-1.471177729543289
 31
0
  0
LINE
  8
0
 10
1.014024283007282
 20
-1.41507544452279
 30
0
 11
1.016662887647253
 21
-1.41974374504062
 31
0
  0
LINE
  8
0
 10
1.010573800016282
 20
-1.41121902235571
 30
0
 11
1.014024283007282
 21
-1.41507544452279
 31
0
  0
LINE
  8
0
 10
1.004078773208224
 20
-1.408034876959009
 30
0
 11
1.010573800016282
 21
-1.41121902235571
 31
0
  0
LINE
  8
0
 10
0.968153156180255
 20
-1.408034876959009
 30
0
 11
1.004078773208224
 21
-1.408034876959009
 31
0
  0
LINE
  8
0
 10
0.9675442474162848
 20
-1.471177729543289
 30
0
 11
0.968153156180255
 21
-1.408034876959009
 31
0
  0
LINE
  8
0
 10
-1.024182456824456
 20
-1.33483014913739
 30
0
 11
-1.024182456824456
 21
-1.24476242788916
 31
0
  0
LINE
  8
0
 10
-0.9674311731757371
 20
-1.24476242788916
 30
0
 11
-0.9674311731757371
 21
-1.33483014913739
 31
0
  0
LINE
  8
0
 10
-0.9674311731757371
 20
-1.33483014913739
 30
0
 11
-1.024182456824456
 21
-1.24476242788916
 31
0
  0
LINE
  8
0
 10
-0.9355560142373068
 20
-1.33483014913739
 30
0
 11
-0.8864311731757369
 21
-1.33483014913739
 31
0
  0
LINE
  8
0
 10
-0.9355560142373068
 20
-1.24476242788918
 30
0
 11
-0.9355560142373068
 21
-1.33483014913739
 31
0
  0
LINE
  8
0
 10
-0.8582185305717758
 20
-1.28570980917928
 30
0
 11
-0.8582185305717758
 21
-1.24476242788918
 31
0
  0
LINE
  8
0
 10
-0.8582185305717758
 20
-1.28570980917928
 30
0
 11
-0.8258402070750746
 21
-1.28570980917928
 31
0
  0
LINE
  8
0
 10
-0.8225417773539847
 20
-1.33483014913739
 30
0
 11
-0.8582185305717758
 21
-1.33483014913739
 31
0
  0
LINE
  8
0
 10
-0.8130587919057761
 20
-1.330444762271989
 30
0
 11
-0.8225417773539847
 21
-1.33483014913739
 31
0
  0
LINE
  8
0
 10
-0.8091419066119052
 20
-1.32632172512039
 30
0
 11
-0.8130587919057761
 21
-1.330444762271989
 31
0
  0
LINE
  8
0
 10
-0.8054311731757372
 20
-1.317457195244981
 30
0
 11
-0.8091419066119052
 21
-1.32632172512039
 31
0
  0
LINE
  8
0
 10
-0.8056373250330944
 20
-1.3052942356482
 30
0
 11
-0.8054311731757372
 21
-1.317457195244981
 31
0
  0
LINE
  8
0
 10
-0.8093480584692663
 20
-1.294780490912399
 30
0
 11
-0.8056373250330944
 21
-1.3052942356482
 31
0
  0
LINE
  8
0
 10
-0.814295703051077
 20
-1.2896266944729
 30
0
 11
-0.8093480584692663
 21
-1.294780490912399
 31
0
  0
LINE
  8
0
 10
-0.8228545594827956
 20
-1.284515550142351
 30
0
 11
-0.814295703051077
 21
-1.2896266944729
 31
0
  0
LINE
  8
0
 10
-0.8228545594827956
 20
-1.284515550142351
 30
0
 11
-0.8258402070750746
 21
-1.28570980917928
 31
0
  0
LINE
  8
0
 10
-0.8258402070750746
 20
-1.28570980917928
 30
0
 11
-0.8228545594827956
 21
-1.284515550142351
 31
0
  0
LINE
  8
0
 10
-0.8196556513479664
 20
-1.2832359868884
 30
0
 11
-0.8228545594827956
 21
-1.284515550142351
 31
0
  0
LINE
  8
0
 10
-0.813883399336006
 20
-1.279319101594479
 30
0
 11
-0.8196556513479664
 21
-1.2832359868884
 31
0
  0
LINE
  8
0
 10
-0.8091419066119052
 20
-1.270248419861389
 30
0
 11
-0.813883399336006
 21
-1.279319101594479
 31
0
  0
LINE
  8
0
 10
-0.8097603621846865
 20
-1.26179619370105
 30
0
 11
-0.8091419066119052
 21
-1.270248419861389
 31
0
  0
LINE
  8
0
 10
-0.811821880760217
 20
-1.253756271255899
 30
0
 11
-0.8097603621846865
 21
-1.26179619370105
 31
0
  0
LINE
  8
0
 10
-0.8178002846298769
 20
-1.24736556367109
 30
0
 11
-0.811821880760217
 21
-1.253756271255899
 31
0
  0
LINE
  8
0
 10
-0.827901725650605
 20
-1.24476242788918
 30
0
 11
-0.8178002846298769
 21
-1.24736556367109
 31
0
  0
LINE
  8
0
 10
-0.8582185305717758
 20
-1.24476242788918
 30
0
 11
-0.827901725650605
 21
-1.24476242788918
 31
0
  0
LINE
  8
0
 10
-0.8582185305717758
 20
-1.33483014913739
 30
0
 11
-0.8582185305717758
 21
-1.28570980917928
 31
0
  0
LINE
  8
0
 10
-0.6744872021497469
 20
-1.33483014913739
 30
0
 11
-0.6434311731757371
 21
-1.33483014913739
 31
0
  0
LINE
  8
0
 10
-0.6817860845347679
 20
-1.332878885818509
 30
0
 11
-0.6744872021497469
 21
-1.33483014913739
 31
0
  0
LINE
  8
0
 10
-0.6860795447617858
 20
-1.330445925023439
 30
0
 11
-0.6817860845347679
 21
-1.332878885818509
 31
0
  0
LINE
  8
0
 10
-0.6900867743077579
 20
-1.32615246479644
 30
0
 11
-0.6860795447617858
 21
-1.330445925023439
 31
0
  0
LINE
  8
0
 10
-0.6920903890807457
 20
-1.316993082978939
 30
0
 11
-0.6900867743077579
 21
-1.32615246479644
 31
0
  0
LINE
  8
0
 10
-0.6920903890807457
 20
-1.289228706844789
 30
0
 11
-0.6920903890807457
 21
-1.316993082978939
 31
0
  0
LINE
  8
0
 10
-0.6902298896497667
 20
-1.28064178639111
 30
0
 11
-0.6920903890807457
 21
-1.289228706844789
 31
0
  0
LINE
  8
0
 10
-0.6862226601037146
 20
-1.2757758648006
 30
0
 11
-0.6902298896497667
 21
-1.28064178639111
 31
0
  0
LINE
  8
0
 10
-0.6817860845347679
 20
-1.2736291346871
 30
0
 11
-0.6862226601037146
 21
-1.2757758648006
 31
0
  0
LINE
  8
0
 10
-0.673914740784756
 20
-1.271687296553109
 30
0
 11
-0.6817860845347679
 21
-1.2736291346871
 31
0
  0
LINE
  8
0
 10
-0.6435742885146974
 20
-1.271687296553109
 30
0
 11
-0.673914740784756
 21
-1.271687296553109
 31
0
  0
LINE
  8
0
 10
-0.5663961745903262
 20
-1.319136684280209
 30
0
 11
-0.5662804443756977
 21
-1.271687296553109
 31
0
  0
LINE
  8
0
 10
-0.5704998378067248
 20
-1.32816794898184
 30
0
 11
-0.5663961745903262
 21
-1.319136684280209
 31
0
  0
LINE
  8
0
 10
-0.5764217934997761
 20
-1.33253539130609
 30
0
 11
-0.5704998378067248
 21
-1.32816794898184
 31
0
  0
LINE
  8
0
 10
-0.584638507026757
 20
-1.33483014913739
 30
0
 11
-0.5764217934997761
 21
-1.33253539130609
 31
0
  0
LINE
  8
0
 10
-0.5967044917507373
 20
-1.33483014913739
 30
0
 11
-0.584638507026757
 21
-1.33483014913739
 31
0
  0
LINE
  8
0
 10
-0.6049212052777149
 20
-1.33246136685991
 30
0
 11
-0.5967044917507373
 21
-1.33483014913739
 31
0
  0
LINE
  8
0
 10
-0.6110652343087349
 20
-1.32787185119732
 30
0
 11
-0.6049212052777149
 21
-1.33246136685991
 31
0
  0
LINE
  8
0
 10
-0.614914505511748
 20
-1.319062942102839
 30
0
 11
-0.6110652343087349
 21
-1.32787185119732
 31
0
  0
LINE
  8
0
 10
-0.6149885299567758
 20
-1.28730645469529
 30
0
 11
-0.614914505511748
 21
-1.319062942102839
 31
0
  0
LINE
  8
0
 10
-0.6108431609707659
 20
-1.278497545600811
 30
0
 11
-0.6149885299567758
 21
-1.28730645469529
 31
0
  0
LINE
  8
0
 10
-0.6049212052777149
 20
-1.27390802993822
 30
0
 11
-0.6108431609707659
 21
-1.278497545600811
 31
0
  0
LINE
  8
0
 10
-0.5965564428606777
 20
-1.271687296553109
 30
0
 11
-0.6049212052777149
 21
-1.27390802993822
 31
0
  0
LINE
  8
0
 10
-0.5662804443756977
 20
-1.271687296553109
 30
0
 11
-0.5965564428606777
 21
-1.271687296553109
 31
0
  0
LINE
  8
0
 10
-0.5664284932687151
 20
-1.33238734241372
 30
0
 11
-0.5663961745903262
 21
-1.319136684280209
 31
0
  0
LINE
  8
0
 10
-0.5643558087757156
 20
-1.33483014913739
 30
0
 11
-0.5664284932687151
 21
-1.33238734241372
 31
0
  0
LINE
  8
0
 10
-0.5624311731757371
 20
-1.33483014913739
 30
0
 11
-0.5643558087757156
 21
-1.33483014913739
 31
0
  0
LINE
  8
0
 10
-0.5369669714062657
 20
-1.333275985252511
 30
0
 11
-0.5369669714062657
 21
-1.334176052585739
 31
0
  0
LINE
  8
0
 10
-0.5358668891092457
 20
-1.333275985252511
 30
0
 11
-0.5369669714062657
 21
-1.333275985252511
 31
0
  0
LINE
  8
0
 10
-0.5358668891092457
 20
-1.334176052585739
 30
0
 11
-0.5358668891092457
 21
-1.333275985252511
 31
0
  0
LINE
  8
0
 10
-0.5369669714062657
 20
-1.334176052585739
 30
0
 11
-0.5358668891092457
 21
-1.334176052585739
 31
0
  0
LINE
  8
0
 10
-0.5375911731757369
 20
-1.33267014913739
 30
0
 11
-0.5375911731757369
 21
-1.33483014913739
 31
0
  0
LINE
  8
0
 10
-0.5354311731757371
 20
-1.33267014913739
 30
0
 11
-0.5375911731757369
 21
-1.33267014913739
 31
0
  0
LINE
  8
0
 10
-0.5354311731757371
 20
-1.33483014913739
 30
0
 11
-0.5354311731757371
 21
-1.33267014913739
 31
0
  0
LINE
  8
0
 10
-0.5375911731757369
 20
-1.33483014913739
 30
0
 11
-0.5354311731757371
 21
-1.33483014913739
 31
0
  0
LINE
  8
0
 10
-0.3734311731757371
 20
-1.24476242788918
 30
0
 11
-0.4134359694670857
 21
-1.33483014913739
 31
0
  0
LINE
  8
0
 10
-0.421840214845397
 20
-1.24476242788918
 30
0
 11
-0.3734311731757371
 21
-1.24476242788918
 31
0
  0
LINE
  8
0
 10
-0.421840214845397
 20
-1.254179734230569
 30
0
 11
-0.421840214845397
 21
-1.24476242788918
 31
0
  0
LINE
  8
0
 10
-0.3108845591026075
 20
-1.33483014913739
 30
0
 11
-0.3413931024361374
 21
-1.33483014913739
 31
0
  0
LINE
  8
0
 10
-0.3048732288385363
 20
-1.3323905652909
 30
0
 11
-0.3108845591026075
 21
-1.33483014913739
 31
0
  0
LINE
  8
0
 10
-0.2990016969529279
 20
-1.32805681556548
 30
0
 11
-0.3048732288385363
 21
-1.3323905652909
 31
0
  0
LINE
  8
0
 10
-0.2952271407403059
 20
-1.320507703140889
 30
0
 11
-0.2990016969529279
 21
-1.32805681556548
 31
0
  0
LINE
  8
0
 10
-0.2925709715539269
 20
-1.312678993959569
 30
0
 11
-0.2952271407403059
 21
-1.320507703140889
 31
0
  0
LINE
  8
0
 10
-0.2925709715539269
 20
-1.30079613180989
 30
0
 11
-0.2925709715539269
 21
-1.312678993959569
 31
0
  0
LINE
  8
0
 10
-0.2943883504711448
 20
-1.29268782587215
 30
0
 11
-0.2925709715539269
 21
-1.30079613180989
 31
0
  0
LINE
  8
0
 10
-0.2967649229011367
 20
-1.28765508425577
 30
0
 11
-0.2943883504711448
 21
-1.29268782587215
 31
0
  0
LINE
  8
0
 10
-0.3012384710044571
 20
-1.28290193939579
 30
0
 11
-0.2967649229011367
 21
-1.28765508425577
 31
0
  0
LINE
  8
0
 10
-0.3082283899162358
 20
-1.28052536696578
 30
0
 11
-0.3012384710044571
 21
-1.28290193939579
 31
0
  0
LINE
  8
0
 10
-0.3082283899162358
 20
-1.28052536696578
 30
0
 11
-0.3293379450298271
 21
-1.28094476210038
 31
0
  0
LINE
  8
0
 10
-0.2988618985744761
 20
-1.27675081075349
 30
0
 11
-0.3082283899162358
 21
-1.28052536696578
 31
0
  0
LINE
  8
0
 10
-0.2946679472275355
 20
-1.27157827075858
 30
0
 11
-0.2988618985744761
 21
-1.27675081075349
 31
0
  0
LINE
  8
0
 10
-0.2925709715539269
 20
-1.26528734373808
 30
0
 11
-0.2946679472275355
 21
-1.27157827075858
 31
0
  0
LINE
  8
0
 10
-0.2924311731757371
 20
-1.2575984329353
 30
0
 11
-0.2925709715539269
 21
-1.26528734373808
 31
0
  0
LINE
  8
0
 10
-0.2949475439839161
 20
-1.25158710267119
 30
0
 11
-0.2924311731757371
 21
-1.2575984329353
 31
0
  0
LINE
  8
0
 10
-0.3010986726262663
 20
-1.24753294970248
 30
0
 11
-0.2949475439839161
 21
-1.25158710267119
 31
0
  0
LINE
  8
0
 10
-0.3108845591026075
 20
-1.24476242788918
 30
0
 11
-0.3010986726262663
 21
-1.24753294970248
 31
0
  0
LINE
  8
0
 10
-0.3413931024361374
 20
-1.24476242788918
 30
0
 11
-0.3108845591026075
 21
-1.24476242788918
 31
0
  0
LINE
  8
0
 10
-0.1614872021497467
 20
-1.33483014913739
 30
0
 11
-0.1304311731757371
 21
-1.33483014913739
 31
0
  0
LINE
  8
0
 10
-0.1687860845347677
 20
-1.332878885818509
 30
0
 11
-0.1614872021497467
 21
-1.33483014913739
 31
0
  0
LINE
  8
0
 10
-0.1730795447617857
 20
-1.330445925023439
 30
0
 11
-0.1687860845347677
 21
-1.332878885818509
 31
0
  0
LINE
  8
0
 10
-0.1770867743077579
 20
-1.32615246479644
 30
0
 11
-0.1730795447617857
 21
-1.330445925023439
 31
0
  0
LINE
  8
0
 10
-0.1790903890807458
 20
-1.316993082978939
 30
0
 11
-0.1770867743077579
 21
-1.32615246479644
 31
0
  0
LINE
  8
0
 10
-0.1790903890807458
 20
-1.289228706844789
 30
0
 11
-0.1790903890807458
 21
-1.316993082978939
 31
0
  0
LINE
  8
0
 10
-0.1772298896497668
 20
-1.28064178639111
 30
0
 11
-0.1790903890807458
 21
-1.289228706844789
 31
0
  0
LINE
  8
0
 10
-0.1732226601037146
 20
-1.2757758648006
 30
0
 11
-0.1772298896497668
 21
-1.28064178639111
 31
0
  0
LINE
  8
0
 10
-0.1687860845347677
 20
-1.2736291346871
 30
0
 11
-0.1732226601037146
 21
-1.2757758648006
 31
0
  0
LINE
  8
0
 10
-0.1609147407847558
 20
-1.271687296553109
 30
0
 11
-0.1687860845347677
 21
-1.2736291346871
 31
0
  0
LINE
  8
0
 10
-0.1305742885146974
 20
-1.271687296553109
 30
0
 11
-0.1609147407847558
 21
-1.271687296553109
 31
0
  0
LINE
  8
0
 10
-0.0784558242217063
 20
-1.33483014913739
 30
0
 11
-0.0784558242217063
 21
-1.271687296553109
 31
0
  0
LINE
  8
0
 10
-0.04943117317573706
 20
-1.282584286283729
 30
0
 11
-0.04943117317573706
 21
-1.33483014913739
 31
0
  0
LINE
  8
0
 10
-0.05267868657976578
 20
-1.27751004659044
 30
0
 11
-0.04943117317573706
 21
-1.282584286283729
 31
0
  0
LINE
  8
0
 10
-0.0559261999837063
 20
-1.27385659401122
 30
0
 11
-0.05267868657976578
 21
-1.27751004659044
 31
0
  0
LINE
  8
0
 10
-0.06201528761773442
 20
-1.271687296553109
 30
0
 11
-0.0559261999837063
 21
-1.27385659401122
 31
0
  0
LINE
  8
0
 10
-0.1060596881557358
 20
-1.271687296553109
 30
0
 11
-0.06201528761773442
 21
-1.271687296553109
 31
0
  0
LINE
  8
0
 10
-0.1068715665067648
 20
-1.33483014913739
 30
0
 11
-0.1060596881557358
 21
-1.271687296553109
 31
0
  0
LINE
  8
0
 10
0.09482252455422348
 20
-1.271687296553109
 30
0
 11
0.06360970860613452
 21
-1.271687296553109
 31
0
  0
LINE
  8
0
 10
0.1018351762581842
 20
-1.2740584807098
 30
0
 11
0.09482252455422348
 21
-1.271687296553109
 31
0
  0
LINE
  8
0
 10
0.1062717518272257
 20
-1.27634832616415
 30
0
 11
0.1018351762581842
 21
-1.2740584807098
 31
0
  0
LINE
  8
0
 10
0.1095634046661835
 20
-1.2804986710503
 30
0
 11
0.1062717518272257
 21
-1.27634832616415
 31
0
  0
LINE
  8
0
 10
0.1125688268242629
 20
-1.289371822185909
 30
0
 11
0.1095634046661835
 21
-1.2804986710503
 31
0
  0
LINE
  8
0
 10
0.1125688268242629
 20
-1.316849967638129
 30
0
 11
0.1125688268242629
 21
-1.289371822185909
 31
0
  0
LINE
  8
0
 10
0.1105652120541636
 20
-1.32586623411481
 30
0
 11
0.1125688268242629
 21
-1.316849967638129
 31
0
  0
LINE
  8
0
 10
0.1056992904622239
 20
-1.33015969434179
 30
0
 11
0.1105652120541636
 21
-1.32586623411481
 31
0
  0
LINE
  8
0
 10
0.1024076376231751
 20
-1.33244953979612
 30
0
 11
0.1056992904622239
 21
-1.33015969434179
 31
0
  0
LINE
  8
0
 10
0.09425006318914531
 20
-1.33483014913739
 30
0
 11
0.1024076376231751
 21
-1.33244953979612
 31
0
  0
LINE
  8
0
 10
0.06390961091917415
 20
-1.33483014913739
 30
0
 11
0.09425006318914531
 21
-1.33483014913739
 31
0
  0
LINE
  8
0
 10
0.06348026489618497
 20
-1.24443360514409
 30
0
 11
0.06390961091917415
 21
-1.33483014913739
 31
0
  0
LINE
  8
0
 10
0.1935688268242629
 20
-1.303110894911719
 30
0
 11
0.1450527262583055
 21
-1.303254010252469
 31
0
  0
LINE
  8
0
 10
0.1935688268242629
 20
-1.28951493752641
 30
0
 11
0.1935688268242629
 21
-1.303110894911719
 31
0
  0
LINE
  8
0
 10
0.1919945580743442
 20
-1.281071132413499
 30
0
 11
0.1935688268242629
 21
-1.28951493752641
 31
0
  0
LINE
  8
0
 10
0.1879873285283829
 20
-1.276777672186519
 30
0
 11
0.1919945580743442
 21
-1.281071132413499
 31
0
  0
LINE
  8
0
 10
0.1831214069393245
 20
-1.27362913468684
 30
0
 11
0.1879873285283829
 21
-1.276777672186519
 31
0
  0
LINE
  8
0
 10
0.1756794092122946
 20
-1.271687296553109
 30
0
 11
0.1831214069393245
 21
-1.27362913468684
 31
0
  0
LINE
  8
0
 10
0.1630852592123629
 20
-1.271687296553109
 30
0
 11
0.1756794092122946
 21
-1.271687296553109
 31
0
  0
LINE
  8
0
 10
0.1552139154623546
 20
-1.27362913468684
 30
0
 11
0.1630852592123629
 21
-1.271687296553109
 31
0
  0
LINE
  8
0
 10
0.151349801258315
 20
-1.27649144150463
 30
0
 11
0.1552139154623546
 21
-1.27362913468684
 31
0
  0
LINE
  8
0
 10
0.1474856870543554
 20
-1.280212440368079
 30
0
 11
0.151349801258315
 21
-1.27649144150463
 31
0
  0
LINE
  8
0
 10
0.1450527262583055
 20
-1.28965805286722
 30
0
 11
0.1474856870543554
 21
-1.280212440368079
 31
0
  0
LINE
  8
0
 10
0.1450527262583055
 20
-1.31627750627434
 30
0
 11
0.1450527262583055
 21
-1.28965805286722
 31
0
  0
LINE
  8
0
 10
0.1477719177382933
 20
-1.32543688809179
 30
0
 11
0.1450527262583055
 21
-1.31627750627434
 31
0
  0
LINE
  8
0
 10
0.1504911092153125
 20
-1.32973034831855
 30
0
 11
0.1477719177382933
 21
-1.32543688809179
 31
0
  0
LINE
  8
0
 10
0.1553570308042836
 20
-1.332449539795489
 30
0
 11
0.1504911092153125
 21
-1.32973034831855
 31
0
  0
LINE
  8
0
 10
0.1636577205772737
 20
-1.33483014913739
 30
0
 11
0.1553570308042836
 21
-1.332449539795489
 31
0
  0
LINE
  8
0
 10
0.1935688268242629
 20
-1.33483014913739
 30
0
 11
0.1636577205772737
 21
-1.33483014913739
 31
0
  0
LINE
  8
0
 10
0.2201491525702149
 20
-1.33483014913739
 30
0
 11
0.2201491525702149
 21
-1.271687296553109
 31
0
  0
LINE
  8
0
 10
0.2205688268242629
 20
-1.244623811381749
 30
0
 11
0.2205688268242629
 21
-1.24938011957729
 31
0
  0
LINE
  8
0
 10
0.3825688268242629
 20
-1.28559830447338
 30
0
 11
0.3825688268242629
 21
-1.33483014913739
 31
0
  0
LINE
  8
0
 10
0.3257714822311354
 20
-1.28559830447338
 30
0
 11
0.3257714822311354
 21
-1.24476242788918
 31
0
  0
LINE
  8
0
 10
0.3257714822311354
 20
-1.28559830447338
 30
0
 11
0.3257714822311354
 21
-1.24476242788918
 31
0
  0
LINE
  8
0
 10
0.3257714822311354
 20
-1.28559830447338
 30
0
 11
0.3825688268242629
 21
-1.28559830447338
 31
0
  0
LINE
  8
0
 10
0.3257714822311354
 20
-1.33483014913739
 30
0
 11
0.3257714822311354
 21
-1.28559830447338
 31
0
  0
LINE
  8
0
 10
0.3825688268242629
 20
-1.24476242788918
 30
0
 11
0.3825688268242629
 21
-1.28559830447338
 31
0
  0
LINE
  8
0
 10
0.3257714822311354
 20
-1.33483014913739
 30
0
 11
0.3257714822311354
 21
-1.28559830447338
 31
0
  0
LINE
  8
0
 10
0.4253097918652747
 20
-1.332785598246299
 30
0
 11
0.4328581960613447
 21
-1.33483014913739
 31
0
  0
LINE
  8
0
 10
0.4204498603973043
 20
-1.33040733391112
 30
0
 11
0.4253097918652747
 21
-1.332785598246299
 31
0
  0
LINE
  8
0
 10
0.4165205541053547
 20
-1.32585761083501
 30
0
 11
0.4204498603973043
 21
-1.33040733391112
 31
0
  0
LINE
  8
0
 10
0.4144524981623253
 20
-1.316654761885489
 30
0
 11
0.4165205541053547
 21
-1.32585761083501
 31
0
  0
LINE
  8
0
 10
0.4144524981623253
 20
-1.289356423428289
 30
0
 11
0.4144524981623253
 21
-1.316654761885489
 31
0
  0
LINE
  8
0
 10
0.4168307624963127
 20
-1.280773991262009
 30
0
 11
0.4144524981623253
 21
-1.289356423428289
 31
0
  0
LINE
  8
0
 10
0.4206566659943056
 20
-1.276431073780179
 30
0
 11
0.4168307624963127
 21
-1.280773991262009
 31
0
  0
LINE
  8
0
 10
0.4249995834743131
 20
-1.2740528094447
 30
0
 11
0.4206566659943056
 21
-1.276431073780179
 31
0
  0
LINE
  8
0
 10
0.4324445848732832
 20
-1.271687296553109
 30
0
 11
0.4249995834743131
 21
-1.2740528094447
 31
0
  0
LINE
  8
0
 10
0.4446461149403332
 20
-1.271687296553109
 30
0
 11
0.4324445848732832
 21
-1.271687296553109
 31
0
  0
LINE
  8
0
 10
0.4525047275273646
 20
-1.273846003850409
 30
0
 11
0.4446461149403332
 21
-1.271687296553109
 31
0
  0
LINE
  8
0
 10
0.4567442422103632
 20
-1.275914059794319
 30
0
 11
0.4525047275273646
 21
-1.273846003850409
 31
0
  0
LINE
  8
0
 10
0.4615007708813135
 20
-1.28098079685632
 30
0
 11
0.4567442422103632
 21
-1.275914059794319
 31
0
  0
LINE
  8
0
 10
0.463362021230314
 20
-1.2895632290226
 30
0
 11
0.4615007708813135
 21
-1.28098079685632
 31
0
  0
LINE
  8
0
 10
0.4635688268242629
 20
-1.316861567479789
 30
0
 11
0.463362021230314
 21
-1.2895632290226
 31
0
  0
LINE
  8
0
 10
0.4612939652872847
 20
-1.32554740244339
 30
0
 11
0.4635688268242629
 21
-1.316861567479789
 31
0
  0
LINE
  8
0
 10
0.4568476450072849
 20
-1.329890319925189
 30
0
 11
0.4612939652872847
 21
-1.32554740244339
 31
0
  0
LINE
  8
0
 10
0.4532285471063042
 20
-1.332475389854719
 30
0
 11
0.4568476450072849
 21
-1.329890319925189
 31
0
  0
LINE
  8
0
 10
0.4451631289253237
 20
-1.33483014913739
 30
0
 11
0.4532285471063042
 21
-1.332475389854719
 31
0
  0
LINE
  8
0
 10
0.4328581960613447
 20
-1.33483014913739
 30
0
 11
0.4451631289253237
 21
-1.33483014913739
 31
0
  0
LINE
  8
0
 10
0.5179687218203144
 20
-1.33483014913739
 30
0
 11
0.5193090888442639
 21
-1.33483014913739
 31
0
  0
LINE
  8
0
 10
0.5142489991072325
 20
-1.33257091640818
 30
0
 11
0.5179687218203144
 21
-1.33483014913739
 31
0
  0
LINE
  8
0
 10
0.5113263598313025
 20
-1.320614664830389
 30
0
 11
0.5142489991072325
 21
-1.33257091640818
 31
0
  0
LINE
  8
0
 10
0.5115920543122739
 20
-1.2448917381711
 30
0
 11
0.5113263598313025
 21
-1.320614664830389
 31
0
  0
LINE
  8
0
 10
0.5768714007502531
 20
-1.33483014913739
 30
0
 11
0.625568826824263
 21
-1.33483014913739
 31
0
  0
LINE
  8
0
 10
0.6250451985863147
 20
-1.271687296553109
 30
0
 11
0.5768714007502531
 21
-1.33483014913739
 31
0
  0
LINE
  8
0
 10
0.5767666751032957
 20
-1.271687296553109
 30
0
 11
0.6250451985863147
 21
-1.271687296553109
 31
0
  0
LINE
  8
0
 10
0.7017292528282633
 20
-1.27843114569241
 30
0
 11
0.7060310963812954
 21
-1.28528720885369
 31
0
  0
LINE
  8
0
 10
0.6956797853332937
 20
-1.273860436917939
 30
0
 11
0.7017292528282633
 21
-1.27843114569241
 31
0
  0
LINE
  8
0
 10
0.6861350699512841
 20
-1.271687296553109
 30
0
 11
0.6956797853332937
 21
-1.273860436917939
 31
0
  0
LINE
  8
0
 10
0.678472411124254
 20
-1.271687296553109
 30
0
 11
0.6861350699512841
 21
-1.271687296553109
 31
0
  0
LINE
  8
0
 10
0.6693309935753132
 20
-1.273860436917939
 30
0
 11
0.678472411124254
 21
-1.271687296553109
 31
0
  0
LINE
  8
0
 10
0.6642225543563036
 20
-1.278162280470289
 30
0
 11
0.6693309935753132
 21
-1.273860436917939
 31
0
  0
LINE
  8
0
 10
0.6597862781933036
 20
-1.28246412402273
 30
0
 11
0.6642225543563036
 21
-1.278162280470289
 31
0
  0
LINE
  8
0
 10
0.6573664911952656
 20
-1.28703483279689
 30
0
 11
0.6597862781933036
 21
-1.28246412402273
 31
0
  0
LINE
  8
0
 10
0.6570976259722449
 20
-1.292008839404451
 30
0
 11
0.6573664911952656
 21
-1.28703483279689
 31
0
  0
LINE
  8
0
 10
0.6592485477503324
 20
-1.29671398078984
 30
0
 11
0.6570976259722449
 21
-1.292008839404451
 31
0
  0
LINE
  8
0
 10
0.6632815260802528
 20
-1.298596037343879
 30
0
 11
0.6592485477503324
 21
-1.29671398078984
 31
0
  0
LINE
  8
0
 10
0.699443898440295
 20
-1.30827518533651
 30
0
 11
0.6632815260802528
 21
-1.298596037343879
 31
0
  0
LINE
  8
0
 10
0.7036113093833337
 20
-1.3097539440576
 30
0
 11
0.699443898440295
 21
-1.30827518533651
 31
0
  0
LINE
  8
0
 10
0.706568826824263
 20
-1.31486238327602
 30
0
 11
0.7036113093833337
 21
-1.3097539440576
 31
0
  0
LINE
  8
0
 10
0.7058966637682533
 20
-1.31916422682839
 30
0
 11
0.706568826824263
 21
-1.31486238327602
 31
0
  0
LINE
  8
0
 10
0.7042834724362836
 20
-1.323600502991751
 30
0
 11
0.7058966637682533
 21
-1.31916422682839
 31
0
  0
LINE
  8
0
 10
0.7007882245523034
 20
-1.327767913933199
 30
0
 11
0.7042834724362836
 21
-1.323600502991751
 31
0
  0
LINE
  8
0
 10
0.6944698918343127
 20
-1.33274192054044
 30
0
 11
0.7007882245523034
 21
-1.327767913933199
 31
0
  0
LINE
  8
0
 10
0.6866728003943426
 20
-1.33483014913739
 30
0
 11
0.6944698918343127
 21
-1.33274192054044
 31
0
  0
LINE
  8
0
 10
0.677396950235343
 20
-1.33483014913739
 30
0
 11
0.6866728003943426
 21
-1.33483014913739
 31
0
  0
LINE
  8
0
 10
0.6678522348533223
 20
-1.33287635315162
 30
0
 11
0.677396950235343
 21
-1.33483014913739
 31
0
  0
LINE
  8
0
 10
0.6618027673582657
 20
-1.32844007698831
 30
0
 11
0.6678522348533223
 21
-1.33287635315162
 31
0
  0
LINE
  8
0
 10
0.6573664911952656
 20
-1.32144958121554
 30
0
 11
0.6618027673582657
 21
-1.32844007698831
 31
0
  0
LINE
  8
0
 10
0.7345665940012331
 20
-1.33483014913739
 30
0
 11
0.7345665940012331
 21
-1.2445541277174
 31
0
  0
LINE
  8
0
 10
0.7270383677841855
 20
-1.271687296553109
 30
0
 11
0.747068826824263
 21
-1.271687296553109
 31
0
  0
LINE
  8
0
 10
0.7972252081462431
 20
-1.33483014913739
 30
0
 11
0.828068826824263
 21
-1.33483014913739
 31
0
  0
LINE
  8
0
 10
0.7899929113552935
 20
-1.33232234688302
 30
0
 11
0.7972252081462431
 21
-1.33483014913739
 31
0
  0
LINE
  8
0
 10
0.7848877606762835
 20
-1.330620629990399
 30
0
 11
0.7899929113552935
 21
-1.33232234688302
 31
0
  0
LINE
  8
0
 10
0.7816970415052638
 20
-1.326366337759529
 30
0
 11
0.7848877606762835
 21
-1.330620629990399
 31
0
  0
LINE
  8
0
 10
0.7791444661642745
 20
-1.317219609462589
 30
0
 11
0.7816970415052638
 21
-1.326366337759529
 31
0
  0
LINE
  8
0
 10
0.7791444661642745
 20
-1.271687296553109
 30
0
 11
0.7791444661642745
 21
-1.317219609462589
 31
0
  0
LINE
  8
0
 10
0.828068826824263
 20
-1.271687296553109
 30
0
 11
0.828068826824263
 21
-1.33483014913739
 31
0
  0
LINE
  8
0
 10
0.8440961035312357
 20
-1.276205210822989
 30
0
 11
0.8681394808012847
 21
-1.276205210822989
 31
0
  0
LINE
  8
0
 10
0.8522536779623042
 20
-1.26017629264234
 30
0
 11
0.8523967933043132
 21
-1.33483014913739
 31
0
  0
LINE
  8
0
 10
0.8545435234162541
 20
-1.251732487529449
 30
0
 11
0.8522536779623042
 21
-1.26017629264234
 31
0
  0
LINE
  8
0
 10
0.8586938683043228
 20
-1.2465803352573
 30
0
 11
0.8545435234162541
 21
-1.251732487529449
 31
0
  0
LINE
  8
0
 10
0.8637029052353029
 20
-1.2448629511665
 30
0
 11
0.8586938683043228
 21
-1.2465803352573
 31
0
  0
LINE
  8
0
 10
0.868568826824263
 20
-1.245006066507309
 30
0
 11
0.8637029052353029
 21
-1.2448629511665
 31
0
  0
LINE
  8
0
 10
0.949568826824263
 20
-1.303110894911719
 30
0
 11
0.9010527262583053
 21
-1.303254010252469
 31
0
  0
LINE
  8
0
 10
0.949568826824263
 20
-1.28951493752641
 30
0
 11
0.949568826824263
 21
-1.303110894911719
 31
0
  0
LINE
  8
0
 10
0.9479945580743444
 20
-1.281071132413499
 30
0
 11
0.949568826824263
 21
-1.28951493752641
 31
0
  0
LINE
  8
0
 10
0.943987328528383
 20
-1.276777672186519
 30
0
 11
0.9479945580743444
 21
-1.281071132413499
 31
0
  0
LINE
  8
0
 10
0.9391214069393246
 20
-1.27362913468684
 30
0
 11
0.943987328528383
 21
-1.276777672186519
 31
0
  0
LINE
  8
0
 10
0.9316794092122946
 20
-1.271687296553109
 30
0
 11
0.9391214069393246
 21
-1.27362913468684
 31
0
  0
LINE
  8
0
 10
0.9190852592123627
 20
-1.271687296553109
 30
0
 11
0.9316794092122946
 21
-1.271687296553109
 31
0
  0
LINE
  8
0
 10
0.9112139154623548
 20
-1.27362913468684
 30
0
 11
0.9190852592123627
 21
-1.271687296553109
 31
0
  0
LINE
  8
0
 10
0.907349801258315
 20
-1.27649144150463
 30
0
 11
0.9112139154623548
 21
-1.27362913468684
 31
0
  0
LINE
  8
0
 10
0.9034856870543553
 20
-1.280212440368079
 30
0
 11
0.907349801258315
 21
-1.27649144150463
 31
0
  0
LINE
  8
0
 10
0.9010527262583053
 20
-1.28965805286722
 30
0
 11
0.9034856870543553
 21
-1.280212440368079
 31
0
  0
LINE
  8
0
 10
0.9010527262583053
 20
-1.31627750627434
 30
0
 11
0.9010527262583053
 21
-1.28965805286722
 31
0
  0
LINE
  8
0
 10
0.9037719177382932
 20
-1.32543688809179
 30
0
 11
0.9010527262583053
 21
-1.31627750627434
 31
0
  0
LINE
  8
0
 10
0.9064911092153125
 20
-1.32973034831855
 30
0
 11
0.9037719177382932
 21
-1.32543688809179
 31
0
  0
LINE
  8
0
 10
0.9113570308042835
 20
-1.332449539795489
 30
0
 11
0.9064911092153125
 21
-1.32973034831855
 31
0
  0
LINE
  8
0
 10
0.9196577205772738
 20
-1.33483014913739
 30
0
 11
0.9113570308042835
 21
-1.332449539795489
 31
0
  0
LINE
  8
0
 10
0.949568826824263
 20
-1.33483014913739
 30
0
 11
0.9196577205772738
 21
-1.33483014913739
 31
0
  0
LINE
  8
0
 10
1.030162887647264
 20
-1.28339616463472
 30
0
 11
1.030568826824263
 21
-1.33483014913739
 31
0
  0
LINE
  8
0
 10
1.027524283007293
 20
-1.27872786411689
 30
0
 11
1.030162887647264
 21
-1.28339616463472
 31
0
  0
LINE
  8
0
 10
1.024073800016293
 20
-1.27487144194981
 30
0
 11
1.027524283007293
 21
-1.27872786411689
 31
0
  0
LINE
  8
0
 10
1.017578773208235
 20
-1.271687296553109
 30
0
 11
1.024073800016293
 21
-1.27487144194981
 31
0
  0
LINE
  8
0
 10
0.9816531561802622
 20
-1.271687296553109
 30
0
 11
1.017578773208235
 21
-1.271687296553109
 31
0
  0
LINE
  8
0
 10
0.9810442474162956
 20
-1.33483014913739
 30
0
 11
0.9816531561802622
 21
-1.271687296553109
 31
0
  0
LINE
  8
0
 10
0.5611717646721991
 20
-0.4636426224555798
 30
0
 11
0.5159206574421006
 21
-0.4262559552246802
 31
0
  0
LINE
  8
0
 10
0.4608269235203989
 20
-0.380737265788739
 30
0
 11
0.4086107996193006
 21
-0.4439372672009104
 31
0
  0
LINE
  8
0
 10
0.5611717646721991
 20
-0.4636426224555798
 30
0
 11
0.5089556407710897
 21
-0.5268426238677294
 31
0
  0
LINE
  8
0
 10
0.5159206574421006
 20
-0.4262559552246802
 30
0
 11
0.47081587709224
 21
-0.4805555320940002
 31
0
  0
LINE
  8
0
 10
0.5159206574421006
 20
-0.4262559552246802
 30
0
 11
0.4608269235203989
 21
-0.380737265788739
 31
0
  0
LINE
  8
0
 10
0.5537529084172201
 20
-0.2251222677146998
 30
0
 11
0.6134592415282004
 21
-0.2493952329714793
 31
0
  0
LINE
  8
0
 10
0.6134592415282004
 20
-0.2493952329714793
 30
0
 11
0.5920681481706488
 21
-0.3020127740136195
 31
0
  0
LINE
  8
0
 10
0.6134592415282004
 20
-0.2493952329714793
 30
0
 11
0.6743323381258997
 21
-0.2741425333297502
 31
0
  0
LINE
  8
0
 10
0.6743323381258997
 20
-0.2741425333297502
 30
0
 11
0.6534597124338798
 21
-0.3254847541621202
 31
0
  0
LINE
  8
0
 10
0.6534597124338798
 20
-0.3254847541621202
 30
0
 11
0.6463860890220204
 21
-0.3350922691187097
 31
0
  0
LINE
  8
0
 10
0.6463860890220204
 20
-0.3350922691187097
 30
0
 11
0.6358700862286496
 21
-0.3412197851949405
 31
0
  0
LINE
  8
0
 10
0.6358700862286496
 20
-0.3412197851949405
 30
0
 11
0.6188988075969791
 21
-0.3405619051561189
 31
0
  0
LINE
  8
0
 10
0.6188988075969791
 20
-0.3405619051561189
 30
0
 11
0.607364909149439
 21
-0.3367645818249403
 31
0
  0
LINE
  8
0
 10
0.607364909149439
 20
-0.3367645818249403
 30
0
 11
0.5998893771430703
 21
-0.3295644115778705
 31
0
  0
LINE
  8
0
 10
0.5998893771430703
 20
-0.3295644115778705
 30
0
 11
0.5927642631302988
 21
-0.3236955780980588
 31
0
  0
LINE
  8
0
 10
0.5927642631302988
 20
-0.3236955780980588
 30
0
 11
0.5927189466683302
 21
-0.313571691206289
 31
0
  0
LINE
  8
0
 10
0.5927189466683302
 20
-0.313571691206289
 30
0
 11
0.5920681481706488
 21
-0.3020127740136195
 31
0
  0
LINE
  8
0
 10
0.5957683196150392
 20
-0.04881012543144971
 30
0
 11
0.6600048070577104
 21
-0.05407289437383952
 31
0
  0
LINE
  8
0
 10
0.6600048070577104
 20
-0.05407289437383952
 30
0
 11
0.6553668742557003
 21
-0.1106827352116488
 31
0
  0
LINE
  8
0
 10
0.6600048070577104
 20
-0.05407289437383952
 30
0
 11
0.72549658492201
 21
-0.05943850678902891
 31
0
  0
LINE
  8
0
 10
0.72549658492201
 20
-0.05943850678902891
 30
0
 11
0.7209710642418395
 21
-0.1146762638565488
 31
0
  0
LINE
  8
0
 10
0.7209710642418395
 20
-0.1146762638565488
 30
0
 11
0.7171020444876304
 21
-0.125962147869619
 31
0
  0
LINE
  8
0
 10
0.7171020444876304
 20
-0.125962147869619
 30
0
 11
0.7089059072740893
 21
-0.1349597088052487
 31
0
  0
LINE
  8
0
 10
0.7089059072740893
 20
-0.1349597088052487
 30
0
 11
0.6925176046247888
 21
-0.139418480027749
 31
0
  0
LINE
  8
0
 10
0.6925176046247888
 20
-0.139418480027749
 30
0
 11
0.68037582017145
 21
-0.1392525036177503
 31
0
  0
LINE
  8
0
 10
0.68037582017145
 20
-0.1392525036177503
 30
0
 11
0.6710859877194199
 21
-0.1346237842075498
 31
0
  0
LINE
  8
0
 10
0.6710859877194199
 20
-0.1346237842075498
 30
0
 11
0.6625294758322398
 21
-0.1311601790867189
 31
0
  0
LINE
  8
0
 10
0.6625294758322398
 20
-0.1311601790867189
 30
0
 11
0.6594520437035389
 21
-0.1215152555062505
 31
0
  0
LINE
  8
0
 10
0.6594520437035389
 20
-0.1215152555062505
 30
0
 11
0.6553668742557003
 21
-0.1106827352116488
 31
0
  0
LINE
  8
0
 10
0.7099605999114301
 20
0.1607301384191396
 30
0
 11
0.6527116339829498
 21
0.1477693709917912
 31
0
  0
LINE
  8
0
 10
0.5830103716443994
 20
0.1319894903264812
 30
0
 11
0.6011120396443693
 21
0.05203266829503082
 31
0
  0
LINE
  8
0
 10
0.7099605999114301
 20
0.1607301384191396
 30
0
 11
0.7280622679114204
 21
0.08077331638768011
 31
0
  0
LINE
  8
0
 10
0.6527116339829498
 20
0.1477693709917912
 30
0
 11
0.668115991680219
 21
0.07888112074160017
 31
0
  0
LINE
  8
0
 10
0.6527116339829498
 20
0.1477693709917912
 30
0
 11
0.5830103716443994
 21
0.1319894903264812
 31
0
  0
LINE
  8
0
 10
0.516651996404189
 20
0.3006543424152005
 30
0
 11
0.5723580626493803
 21
0.333071270699711
 31
0
  0
LINE
  8
0
 10
0.6291527203503994
 20
0.3661216810003498
 30
0
 11
0.6573634249019888
 21
0.3176436955853605
 31
0
  0
LINE
  8
0
 10
0.6573634249019888
 20
0.3176436955853605
 30
0
 11
0.6594535341663305
 21
0.3054803455729307
 31
0
  0
LINE
  8
0
 10
0.6594535341663305
 20
0.3054803455729307
 30
0
 11
0.6581951366989087
 21
0.2961468493049997
 31
0
  0
LINE
  8
0
 10
0.6581951366989087
 20
0.2961468493049997
 30
0
 11
0.6482701487066899
 21
0.2814514570744795
 31
0
  0
LINE
  8
0
 10
0.6482701487066899
 20
0.2814514570744795
 30
0
 11
0.6357959582363893
 21
0.2738738115047508
 31
0
  0
LINE
  8
0
 10
0.6357959582363893
 20
0.2738738115047508
 30
0
 11
0.626341468084409
 21
0.27315042159103
 31
0
  0
LINE
  8
0
 10
0.626341468084409
 20
0.27315042159103
 30
0
 11
0.6180553496777902
 21
0.2715141253945512
 31
0
  0
LINE
  8
0
 10
0.6180553496777902
 20
0.2715141253945512
 30
0
 11
0.60848789118455
 21
0.2764591289239706
 31
0
  0
LINE
  8
0
 10
0.60848789118455
 20
0.2764591289239706
 30
0
 11
0.6004517860881586
 21
0.2864365883159007
 31
0
  0
LINE
  8
0
 10
0.6004517860881586
 20
0.2864365883159007
 30
0
 11
0.5964697219234094
 21
0.2930466874706508
 31
0
  0
LINE
  8
0
 10
0.5723580626493803
 20
0.333071270699711
 30
0
 11
0.6291527203503994
 21
0.3661216810003498
 31
0
  0
LINE
  8
0
 10
0.5964697219234094
 20
0.2930466874706508
 30
0
 11
0.5580187142469295
 21
0.2295687323207203
 31
0
  0
LINE
  8
0
 10
0.5964697219234094
 20
0.2930466874706508
 30
0
 11
0.5723580626493803
 21
0.333071270699711
 31
0
  0
LINE
  8
0
 10
0.4596379150871489
 20
0.5660000724057409
 30
0
 11
0.4905022083616696
 21
0.5378529672830409
 31
0
  0
LINE
  8
0
 10
0.4027940069139095
 20
0.4416778316780309
 30
0
 11
0.4905022083616696
 21
0.5378529672830409
 31
0
  0
LINE
  8
0
 10
0.4905022083616696
 20
0.5378529672830409
 30
0
 11
0.5207769231528
 21
0.5102435361450607
 31
0
  0
LINE
  8
0
 10
-0.395754764665111
 20
0.6109471311559902
 30
0
 11
-0.3606960170551702
 21
0.6336572245540412
 31
0
  0
LINE
  8
0
 10
-0.289929896064401
 20
0.5244118977442995
 30
0
 11
-0.3606960170551702
 21
0.6336572245540412
 31
0
  0
LINE
  8
0
 10
-0.3606960170551702
 20
0.6336572245540412
 30
0
 11
-0.3263069715849398
 21
0.6559335033072512
 31
0
  0
LINE
  8
0
 10
-0.5268994660910011
 20
0.4980900444740109
 30
0
 11
-0.4982798980519402
 21
0.5285167506937596
 31
0
  0
LINE
  8
0
 10
-0.4034683120335004
 20
0.4393363242173709
 30
0
 11
-0.4982798980519402
 21
0.5285167506937596
 31
0
  0
LINE
  8
0
 10
-0.4982798980519402
 20
0.5285167506937596
 30
0
 11
-0.4702070291181899
 21
0.5583622373421113
 31
0
  0
LINE
  8
0
 10
-0.5247328388799506
 20
0.2864701321059001
 30
0
 11
-0.5161436931429307
 21
0.3031066005347711
 31
0
  0
LINE
  8
0
 10
-0.5161436931429307
 20
0.3031066005347711
 30
0
 11
-0.5150341616419302
 21
0.31430868648658
 31
0
  0
LINE
  8
0
 10
-0.5150341616419302
 20
0.31430868648658
 30
0
 11
-0.5161458795757898
 21
0.3235589053836211
 31
0
  0
LINE
  8
0
 10
-0.5161458795757898
 20
0.3235589053836211
 30
0
 11
-0.52070665673242
 21
0.3327306212301701
 31
0
  0
LINE
  8
0
 10
-0.52070665673242
 20
0.3327306212301701
 30
0
 11
-0.5254017128420709
 21
0.3410420642671306
 31
0
  0
LINE
  8
0
 10
-0.5254017128420709
 20
0.3410420642671306
 30
0
 11
-0.5351400628254105
 21
0.3497882161061807
 31
0
  0
LINE
  8
0
 10
-0.5351400628254105
 20
0.3497882161061807
 30
0
 11
-0.5826029286373106
 21
0.3742925436500809
 31
0
  0
LINE
  8
0
 10
-0.5826029286373106
 20
0.3742925436500809
 30
0
 11
-0.5962409826170497
 21
0.3766856608400503
 31
0
  0
LINE
  8
0
 10
-0.5962409826170497
 20
0.3766856608400503
 30
0
 11
-0.6141258015499605
 21
0.3744542569860896
 31
0
  0
LINE
  8
0
 10
-0.6141258015499605
 20
0.3744542569860896
 30
0
 11
-0.6239290722300211
 21
0.3686702100921702
 31
0
  0
LINE
  8
0
 10
-0.6239290722300211
 20
0.3686702100921702
 30
0
 11
-0.6318018362190997
 21
0.3628190720128096
 31
0
  0
LINE
  8
0
 10
-0.6318018362190997
 20
0.3628190720128096
 30
0
 11
-0.6397594271226207
 21
0.3474058733211295
 31
0
  0
LINE
  8
0
 10
-0.6397594271226207
 20
0.3474058733211295
 30
0
 11
-0.6408388057984604
 21
0.337117818852621
 31
0
  0
LINE
  8
0
 10
-0.6408388057984604
 20
0.337117818852621
 30
0
 11
-0.6377937602422098
 21
0.3250102556369202
 31
0
  0
LINE
  8
0
 10
-0.6377937602422098
 20
0.3250102556369202
 30
0
 11
-0.6341956629037304
 21
0.3175750213806095
 31
0
  0
LINE
  8
0
 10
-0.6341956629037304
 20
0.3175750213806095
 30
0
 11
-0.6303608796036096
 21
0.3093978572966607
 31
0
  0
LINE
  8
0
 10
-0.6303608796036096
 20
0.3093978572966607
 30
0
 11
-0.6205065794324
 21
0.300876291429091
 31
0
  0
LINE
  8
0
 10
-0.6205065794324
 20
0.300876291429091
 30
0
 11
-0.57353302151563
 21
0.2766245858186903
 31
0
  0
LINE
  8
0
 10
-0.57353302151563
 20
0.2766245858186903
 30
0
 11
-0.5601451966757796
 21
0.2731466098476903
 31
0
  0
LINE
  8
0
 10
-0.5601451966757796
 20
0.2731466098476903
 30
0
 11
-0.5448651001284397
 21
0.2739339939745496
 31
0
  0
LINE
  8
0
 10
-0.5448651001284397
 20
0.2739339939745496
 30
0
 11
-0.532094110135331
 21
0.2806647847146396
 31
0
  0
LINE
  8
0
 10
-0.532094110135331
 20
0.2806647847146396
 30
0
 11
-0.5247328388799506
 21
0.2864701321059001
 31
0
  0
LINE
  8
0
 10
-0.7071084335730211
 20
0.1877017210902504
 30
0
 11
-0.7144521519830596
 21
0.1376685848546695
 31
0
  0
LINE
  8
0
 10
-0.5857232591060711
 20
0.1183969287219606
 30
0
 11
-0.5784337378798411
 21
0.1680608167199898
 31
0
  0
LINE
  8
0
 10
-0.5784337378798411
 20
0.1680608167199898
 30
0
 11
-0.6490013277788503
 21
0.178418522594211
 31
0
  0
LINE
  8
0
 10
-0.6490013277788503
 20
0.178418522594211
 30
0
 11
-0.6532016095263097
 21
0.1498017841566398
 31
0
  0
LINE
  8
0
 10
-0.7144521519830596
 20
0.1376685848546695
 30
0
 11
-0.7128805547838201
 21
0.1261218160888111
 31
0
  0
LINE
  8
0
 10
-0.7128805547838201
 20
0.1261218160888111
 30
0
 11
-0.701809702756731
 21
0.1090315397169197
 31
0
  0
LINE
  8
0
 10
-0.701809702756731
 20
0.1090315397169197
 30
0
 11
-0.6808621032302798
 21
0.1001242513246707
 31
0
  0
LINE
  8
0
 10
-0.6808621032302798
 20
0.1001242513246707
 30
0
 11
-0.6282442293291406
 21
0.09240115262770997
 31
0
  0
LINE
  8
0
 10
-0.6282442293291406
 20
0.09240115262770997
 30
0
 11
-0.6053817154804112
 21
0.09525532297312021
 31
0
  0
LINE
  8
0
 10
-0.6053817154804112
 20
0.09525532297312021
 30
0
 11
-0.5977105667297911
 21
0.09997602275949975
 31
0
  0
LINE
  8
0
 10
-0.5977105667297911
 20
0.09997602275949975
 30
0
 11
-0.5857232591060711
 21
0.1183969287219606
 31
0
  0
LINE
  8
0
 10
-0.6032185230798496
 20
-0.01327434346670998
 30
0
 11
-0.7188196585480709
 21
-0.114789064408269
 31
0
  0
LINE
  8
0
 10
-0.7317528667419011
 20
-0.03380012747643013
 30
0
 11
-0.6032185230798496
 21
-0.01327434346670998
 31
0
  0
LINE
  8
0
 10
-0.5902853148859905
 20
-0.0942632803985598
 30
0
 11
-0.7188196585480709
 21
-0.114789064408269
 31
0
  0
LINE
  8
0
 10
-0.5715109551292898
 20
-0.1934528959419004
 30
0
 11
-0.6513733969025307
 21
-0.3249475782807403
 31
0
  0
LINE
  8
0
 10
-0.68798502627378
 20
-0.2515577671737901
 30
0
 11
-0.5715109551292898
 21
-0.1934528959419004
 31
0
  0
LINE
  8
0
 10
-0.5348993257580404
 20
-0.2668427070488597
 30
0
 11
-0.6513733969025307
 21
-0.3249475782807403
 31
0
  0
LINE
  8
0
 10
-0.5240415927622598
 20
-0.5052312736539698
 30
0
 11
-0.4817845445642197
 21
-0.4644910297939405
 31
0
  0
LINE
  8
0
 10
-0.4303361113159499
 20
-0.4148893229513396
 30
0
 11
-0.4872360111657709
 21
-0.3558709768983299
 31
0
  0
LINE
  8
0
 10
-0.5240415927622598
 20
-0.5052312736539698
 30
0
 11
-0.5809414926120499
 21
-0.4462129276009891
 31
0
  0
LINE
  8
0
 10
-0.4817845445642197
 20
-0.4644910297939405
 30
0
 11
-0.5306439092320707
 21
-0.4135435299254404
 31
0
  0
LINE
  8
0
 10
-0.4817845445642197
 20
-0.4644910297939405
 30
0
 11
-0.4303361113159499
 21
-0.4148893229513396
 31
0
  0
LINE
  8
0
 10
-0.3481537719510397
 20
-0.6392708204658701
 30
0
 11
-0.3043433619554708
 21
-0.5588272952216503
 31
0
  0
LINE
  8
0
 10
-0.3043433619554708
 20
-0.5588272952216503
 30
0
 11
-0.3378566168139296
 21
-0.5707481412753695
 31
0
  0
LINE
  8
0
 10
-0.3043433619554708
 20
-0.5588272952216503
 30
0
 11
-0.28589933018802
 21
-0.5249608480635689
 31
0
  0
LINE
  8
0
 10
-0.3378566168139296
 20
-0.5707481412753695
 30
0
 11
-0.3579406053110197
 21
-0.4857263939523002
 31
0
  0
LINE
  8
0
 10
-0.3378566168139296
 20
-0.5707481412753695
 30
0
 11
-0.4201950470740201
 21
-0.6000363663546197
 31
0
  0
LINE
  8
0
 10
-0.08308177006921141
 20
-1.20176241745339
 30
0
 11
-0.08308177006921141
 21
-1.1416107031799
 31
0
  0
LINE
  8
0
 10
-0.1444629562137834
 20
-1.17188712583887
 30
0
 11
-0.06309933111430838
 21
-1.17188712583887
 31
0
  0
LINE
  8
0
 10
-0.08308177006921141
 20
-1.051649548706369
 30
0
 11
-0.1444629562137834
 21
-1.17188712583887
 31
0
  0
LINE
  8
0
 10
-0.2400217640463507
 20
-1.126614666988349
 30
0
 11
-0.2939034629292565
 21
-1.127432252123319
 31
0
  0
LINE
  8
0
 10
-0.2400217640463507
 20
-1.126614666988349
 30
0
 11
-0.1990519412357653
 21
-1.20176241745339
 31
0
  0
LINE
  8
0
 10
-0.2939034629292565
 20
-1.127432252123319
 30
0
 11
-0.2939034629292565
 21
-1.051649548706369
 31
0
  0
LINE
  8
0
 10
-0.231123148657889
 20
-1.126479642001899
 30
0
 11
-0.2400217640463507
 21
-1.126614666988349
 31
0
  0
LINE
  8
0
 10
-0.2165164601288689
 20
-1.124256885051869
 30
0
 11
-0.231123148657889
 21
-1.126479642001899
 31
0
  0
LINE
  8
0
 10
-0.2060377487932683
 20
-1.117588614201879
 30
0
 11
-0.2165164601288689
 21
-1.124256885051869
 31
0
  0
LINE
  8
0
 10
-0.2028623817218886
 20
-1.10838004969435
 30
0
 11
-0.2060377487932683
 21
-1.117588614201879
 31
0
  0
LINE
  8
0
 10
-0.1980993311143084
 20
-1.09853641177287
 30
0
 11
-0.2028623817218886
 21
-1.10838004969435
 31
0
  0
LINE
  8
0
 10
-0.1984168678218975
 20
-1.0817069662944
 30
0
 11
-0.1980993311143084
 21
-1.09853641177287
 31
0
  0
LINE
  8
0
 10
-0.2073078956218797
 20
-1.063289837279879
 30
0
 11
-0.1984168678218975
 21
-1.0817069662944
 31
0
  0
LINE
  8
0
 10
-0.2158813867148547
 20
-1.05662156642986
 30
0
 11
-0.2073078956218797
 21
-1.063289837279879
 31
0
  0
LINE
  8
0
 10
-0.2292179284148278
 20
-1.051649548706369
 30
0
 11
-0.2158813867148547
 21
-1.05662156642986
 31
0
  0
LINE
  8
0
 10
-0.2939034629292565
 20
-1.051649548706369
 30
0
 11
-0.2292179284148278
 21
-1.051649548706369
 31
0
  0
LINE
  8
0
 10
-0.2939034629292565
 20
-1.20176241745339
 30
0
 11
-0.2939034629292565
 21
-1.127432252123319
 31
0
  0
LINE
  8
0
 10
-0.3330993311143085
 20
-1.051649548706369
 30
0
 11
-0.3997739915998955
 21
-1.20176241745339
 31
0
  0
LINE
  8
0
 10
-0.4137810672304014
 20
-1.051649548706369
 30
0
 11
-0.3330993311143085
 21
-1.051649548706369
 31
0
  0
LINE
  8
0
 10
-0.4137810672304014
 20
-1.06734505927536
 30
0
 11
-0.4137810672304014
 21
-1.051649548706369
 31
0
  0
LINE
  8
0
 10
-0.516278623451317
 20
-1.11209928343687
 30
0
 11
-0.5028066886274155
 21
-1.1116426076804
 31
0
  0
LINE
  8
0
 10
-0.5263254900997981
 20
-1.05615650323485
 30
0
 11
-0.5167352992083306
 21
-1.051649548706369
 31
0
  0
LINE
  8
0
 10
-0.5368290325052931
 20
-1.06300663958638
 30
0
 11
-0.5263254900997981
 21
-1.05615650323485
 31
0
  0
LINE
  8
0
 10
-0.5423091415864019
 20
-1.074423533504849
 30
0
 11
-0.5368290325052931
 21
-1.06300663958638
 31
0
  0
LINE
  8
0
 10
-0.5427658173434157
 20
-1.089493833477829
 30
0
 11
-0.5423091415864019
 21
-1.074423533504849
 31
0
  0
LINE
  8
0
 10
-0.5363723567488614
 20
-1.10091072739688
 30
0
 11
-0.5427658173434157
 21
-1.089493833477829
 31
0
  0
LINE
  8
0
 10
-0.5258688143433665
 20
-1.1079892016264
 30
0
 11
-0.5363723567488614
 21
-1.10091072739688
 31
0
  0
LINE
  8
0
 10
-0.516278623451317
 20
-1.11209928343687
 30
0
 11
-0.5258688143433665
 21
-1.1079892016264
 31
0
  0
LINE
  8
0
 10
-0.5334039643298729
 20
-1.1189494197884
 30
0
 11
-0.516278623451317
 21
-1.11209928343687
 31
0
  0
LINE
  8
0
 10
-0.5439075067347858
 20
-1.130594651585379
 30
0
 11
-0.5334039643298729
 21
-1.1189494197884
 31
0
  0
LINE
  8
0
 10
-0.5500398961048177
 20
-1.145893289436899
 30
0
 11
-0.5439075067347858
 21
-1.130594651585379
 31
0
  0
LINE
  8
0
 10
-0.5500398961048177
 20
-1.169183753031361
 30
0
 11
-0.5500398961048177
 21
-1.145893289436899
 31
0
  0
LINE
  8
0
 10
-0.5429941552213404
 20
-1.18356903936888
 30
0
 11
-0.5500398961048177
 21
-1.169183753031361
 31
0
  0
LINE
  8
0
 10
-0.5329472885728583
 20
-1.194072581774381
 30
0
 11
-0.5429941552213404
 21
-1.18356903936888
 31
0
  0
LINE
  8
0
 10
-0.5197036916273191
 20
-1.20176241745339
 30
0
 11
-0.5329472885728583
 21
-1.194072581774381
 31
0
  0
LINE
  8
0
 10
-0.4993816204518498
 20
-1.20176241745339
 30
0
 11
-0.5197036916273191
 21
-1.20176241745339
 31
0
  0
LINE
  8
0
 10
-0.4861380235058724
 20
-1.19475759540935
 30
0
 11
-0.4993816204518498
 21
-1.20176241745339
 31
0
  0
LINE
  8
0
 10
-0.4760911568573921
 20
-1.18425405300382
 30
0
 11
-0.4861380235058724
 21
-1.19475759540935
 31
0
  0
LINE
  8
0
 10
-0.4680993311143084
 20
-1.16872707727438
 30
0
 11
-0.4760911568573921
 21
-1.18425405300382
 31
0
  0
LINE
  8
0
 10
-0.4690126826273163
 20
-1.14520827580189
 30
0
 11
-0.4680993311143084
 21
-1.16872707727438
 31
0
  0
LINE
  8
0
 10
-0.4756344811003792
 20
-1.1312796652209
 30
0
 11
-0.4690126826273163
 21
-1.14520827580189
 31
0
  0
LINE
  8
0
 10
-0.484996334113921
 20
-1.11963443342338
 30
0
 11
-0.4756344811003792
 21
-1.1312796652209
 31
0
  0
LINE
  8
0
 10
-0.5028066886274155
 20
-1.1116426076804
 30
0
 11
-0.484996334113921
 21
-1.11963443342338
 31
0
  0
LINE
  8
0
 10
-0.4911614568298228
 20
-1.1079892016264
 30
0
 11
-0.5028066886274155
 21
-1.1116426076804
 31
0
  0
LINE
  8
0
 10
-0.4833979689653916
 20
-1.10045405163983
 30
0
 11
-0.4911614568298228
 21
-1.1079892016264
 31
0
  0
LINE
  8
0
 10
-0.4756344811003792
 20
-1.089493833477829
 30
0
 11
-0.4833979689653916
 21
-1.10045405163983
 31
0
  0
LINE
  8
0
 10
-0.4754061432223079
 20
-1.074651871383359
 30
0
 11
-0.4756344811003792
 21
-1.089493833477829
 31
0
  0
LINE
  8
0
 10
-0.4822562795732938
 20
-1.06300663958638
 30
0
 11
-0.4754061432223079
 21
-1.074651871383359
 31
0
  0
LINE
  8
0
 10
-0.4923031462219205
 20
-1.055928165356379
 30
0
 11
-0.4822562795732938
 21
-1.06300663958638
 31
0
  0
LINE
  8
0
 10
-0.5021216749923315
 20
-1.051649548706369
 30
0
 11
-0.4923031462219205
 21
-1.055928165356379
 31
0
  0
LINE
  8
0
 10
-0.5167352992083306
 20
-1.051649548706369
 30
0
 11
-0.5021216749923315
 21
-1.051649548706369
 31
0
  0
LINE
  8
0
 10
-0.6030993311143084
 20
-1.051649548706369
 30
0
 11
-0.6030993311143084
 21
-1.20176241745339
 31
0
  0
LINE
  8
0
 10
-0.6443937079203451
 20
-1.097041612046849
 30
0
 11
-0.6030993311143084
 21
-1.051649548706369
 31
0
  0
LINE
  8
0
 10
-0.7125217640463507
 20
-1.126614666988349
 30
0
 11
-0.7664034629292564
 21
-1.127432252123319
 31
0
  0
LINE
  8
0
 10
-0.7125217640463507
 20
-1.126614666988349
 30
0
 11
-0.6715519412357653
 21
-1.20176241745339
 31
0
  0
LINE
  8
0
 10
-0.7664034629292564
 20
-1.127432252123319
 30
0
 11
-0.7664034629292564
 21
-1.051649548706369
 31
0
  0
LINE
  8
0
 10
-0.703623148657889
 20
-1.126479642001899
 30
0
 11
-0.7125217640463507
 21
-1.126614666988349
 31
0
  0
LINE
  8
0
 10
-0.6890164601288689
 20
-1.124256885051869
 30
0
 11
-0.703623148657889
 21
-1.126479642001899
 31
0
  0
LINE
  8
0
 10
-0.6785377487932683
 20
-1.117588614201879
 30
0
 11
-0.6890164601288689
 21
-1.124256885051869
 31
0
  0
LINE
  8
0
 10
-0.6753623817218886
 20
-1.10838004969435
 30
0
 11
-0.6785377487932683
 21
-1.117588614201879
 31
0
  0
LINE
  8
0
 10
-0.6705993311143084
 20
-1.09853641177287
 30
0
 11
-0.6753623817218886
 21
-1.10838004969435
 31
0
  0
LINE
  8
0
 10
-0.6709168678218975
 20
-1.0817069662944
 30
0
 11
-0.6705993311143084
 21
-1.09853641177287
 31
0
  0
LINE
  8
0
 10
-0.6798078956218797
 20
-1.063289837279879
 30
0
 11
-0.6709168678218975
 21
-1.0817069662944
 31
0
  0
LINE
  8
0
 10
-0.6883813867148547
 20
-1.05662156642986
 30
0
 11
-0.6798078956218797
 21
-1.063289837279879
 31
0
  0
LINE
  8
0
 10
-0.7017179284148278
 20
-1.051649548706369
 30
0
 11
-0.6883813867148547
 21
-1.05662156642986
 31
0
  0
LINE
  8
0
 10
-0.7664034629292564
 20
-1.051649548706369
 30
0
 11
-0.7017179284148278
 21
-1.051649548706369
 31
0
  0
LINE
  8
0
 10
-0.7664034629292564
 20
-1.20176241745339
 30
0
 11
-0.7664034629292564
 21
-1.127432252123319
 31
0
  0
LINE
  8
0
 10
-0.819439162322915
 20
-1.059242517198909
 30
0
 11
-0.8099698041278589
 21
-1.06670874192932
 31
0
  0
LINE
  8
0
 10
-0.8285443144333385
 20
-1.05614676548088
 30
0
 11
-0.819439162322915
 21
-1.059242517198909
 31
0
  0
LINE
  8
0
 10
-0.8463904125708623
 20
-1.051649548706369
 30
0
 11
-0.8285443144333385
 21
-1.05614676548088
 31
0
  0
LINE
  8
0
 10
-0.8600481407368626
 20
-1.051649548706369
 30
0
 11
-0.8463904125708623
 21
-1.051649548706369
 31
0
  0
LINE
  8
0
 10
-0.8831752270983543
 20
-1.059424620240819
 30
0
 11
-0.8600481407368626
 21
-1.051649548706369
 31
0
  0
LINE
  8
0
 10
-0.8941014096313574
 20
-1.06707294801388
 30
0
 11
-0.8831752270983543
 21
-1.059424620240819
 31
0
  0
LINE
  8
0
 10
-0.8968329552643536
 20
-1.07836333663137
 30
0
 11
-0.8941014096313574
 21
-1.06707294801388
 31
0
  0
LINE
  8
0
 10
-0.8973792643908656
 20
-1.0867400765734
 30
0
 11
-0.8968329552643536
 21
-1.07836333663137
 31
0
  0
LINE
  8
0
 10
-0.8937372035468707
 20
-1.097119949979349
 30
0
 11
-0.8973792643908656
 21
-1.0867400765734
 31
0
  0
LINE
  8
0
 10
-0.8848141544783266
 20
-1.10349355645685
 30
0
 11
-0.8937372035468707
 21
-1.097119949979349
 31
0
  0
LINE
  8
0
 10
-0.8265411809693159
 20
-1.130991115831379
 30
0
 11
-0.8848141544783266
 21
-1.10349355645685
 31
0
  0
LINE
  8
0
 10
-0.8167076166897723
 20
-1.138275237520389
 30
0
 11
-0.8265411809693159
 21
-1.130991115831379
 31
0
  0
LINE
  8
0
 10
-0.8097877010853963
 20
-1.14920142005289
 30
0
 11
-0.8167076166897723
 21
-1.138275237520389
 31
0
  0
LINE
  8
0
 10
-0.8065098463253071
 20
-1.16012760258589
 30
0
 11
-0.8097877010853963
 21
-1.14920142005289
 31
0
  0
LINE
  8
0
 10
-0.8055993311143084
 20
-1.16886854861241
 30
0
 11
-0.8065098463253071
 21
-1.16012760258589
 31
0
  0
LINE
  8
0
 10
-0.8094234950009104
 20
-1.17870211289188
 30
0
 11
-0.8055993311143084
 21
-1.16886854861241
 31
0
  0
LINE
  8
0
 10
-0.8156149984363128
 20
-1.190538810635881
 30
0
 11
-0.8094234950009104
 21
-1.17870211289188
 31
0
  0
LINE
  8
0
 10
-0.8258127688003424
 20
-1.19782293232438
 30
0
 11
-0.8156149984363128
 21
-1.190538810635881
 31
0
  0
LINE
  8
0
 10
-0.8422020425997744
 20
-1.20176241745339
 30
0
 11
-0.8258127688003424
 21
-1.19782293232438
 31
0
  0
LINE
  8
0
 10
-0.863872304623319
 20
-1.20176241745339
 30
0
 11
-0.8422020425997744
 21
-1.20176241745339
 31
0
  0
LINE
  8
0
 10
-0.8797152692963845
 20
-1.198187138408899
 30
0
 11
-0.863872304623319
 21
-1.20176241745339
 31
0
  0
LINE
  8
0
 10
-0.8937372035468707
 20
-1.191085119762389
 30
0
 11
-0.8797152692963845
 21
-1.198187138408899
 31
0
  0
LINE
  8
0
 10
-0.9007951552018767
 20
-1.18307258590488
 30
0
 11
-0.8937372035468707
 21
-1.191085119762389
 31
0
  0
LINE
  8
0
 10
-1.034684769510305
 20
-1.20176241745339
 30
0
 11
-0.9405993311143084
 21
-1.20176241745339
 31
0
  0
LINE
  8
0
 10
-0.9405993311143084
 20
-1.051649548706369
 30
0
 11
-1.034684769510305
 21
-1.20176241745339
 31
0
  0
LINE
  8
0
 10
-1.034684769510305
 20
-1.051649548706369
 30
0
 11
-0.9405993311143084
 21
-1.051649548706369
 31
0
  0
ARC
  8
0
 10
0
 20
0
 30
0
 40
0.5899999999999991
 50
130.4979524968174
 51
153.8047102648514
  0
ARC
  8
0
 10
0
 20
0
 30
0
 40
0.5900000000000006
 50
153.8047102648514
 51
177.1114680328845
  0
ARC
  8
0
 10
0
 20
0
 30
0
 40
0.5900000000000019
 50
177.1114680328845
 51
200.4182258009179
  0
ARC
  8
0
 10
0
 20
0
 30
0
 40
0.5900000000000026
 50
200.4182258009179
 51
223.7249835689513
  0
ARC
  8
0
 10
0
 20
0
 30
0
 40
0.5900000000000049
 50
223.7249835689513
 51
247.0317413369849
  0
ARC
  8
0
 10
0
 20
0
 30
0
 40
0.5900000000000009
 50
247.0317413369849
 51
270.3384991050176
  0
ARC
  8
0
 10
0
 20
0
 30
0
 40
0.5900000000000002
 50
270.3384991050176
 51
293.6452568730518
  0
ARC
  8
0
 10
0
 20
0
 30
0
 40
0.5900000000000019
 50
293.6452568730518
 51
316.9520146410848
  0
ARC
  8
0
 10
0
 20
0
 30
0
 40
0.5899999999999996
 50
316.9520146410848
 51
340.2587724091184
  0
ARC
  8
0
 10
0
 20
0
 30
0
 40
0.5899999999999989
 50
340.2587724091184
 51
3.565530177151873
  0
ARC
  8
0
 10
0
 20
0
 30
0
 40
0.5899999999999986
 50
3.565530177151873
 51
26.87228794518551
  0
ARC
  8
0
 10
0
 20
0
 30
0
 40
0.589999999999995
 50
26.87228794518551
 51
50.17904571321877
  0
ARC
  8
0
 10
0
 20
0
 30
0
 40
0.5899999999999938
 50
50.17904571321877
 51
73.48580348125306
  0
ARC
  8
0
 10
0
 20
0
 30
0
 40
0.9825000000000045
 50
53.08007243595105
 51
126.919927564049
  0
CIRCLE
  8
0
  6
DASHED
 10
0
 20
0
 30
0
 40
1.012499999999996
  0
CIRCLE
  8
0
 10
0.1677092160129541
 20
0.5656621066187109
 30
0
 40
0.07000000000000001
  0
INSERT
  8
0
  2
*D0
 10
0
 20
0
 30
0
 43
1
  0
INSERT
  8
0
  2
*D1
 10
0
 20
0
 30
0
 43
1
  0
ENDSEC
  0
EOF
