  0
SECTION
  2
HEADER
  9
$ACADVER
  1
AC1009
  9
$INSBASE
 10
0
 20
0
  9
$EXTMIN
 10
-1.3658729929718
 20
-1.632235965184589
  9
$EXTMAX
 10
1.39363845784898
 20
1.219137327641811
  9
$LIMMIN
 10
-1.3658729929718
 20
-1.632235965184589
  9
$LIMMAX
 10
1.39363845784898
 20
1.219137327641811
  9
$VIEWCTR
 10
10
 20
10
  9
$VIEWSIZE
 40
10
  9
$SNAPMODE
 70
0
  9
$SNAPUNIT
 10
1
 20
1
  9
$SNAPBASE
 10
0
 20
0
  9
$SNAPANG
 50
0
  9
$SNAPSTYLE
 70
0
  9
$SNAPISOPAIR
 70
0
  9
$GRIDMODE
 70
0
  9
$GRIDUNIT
 10
0
 20
0
  9
$ORTHOMODE
 70
0
  9
$REGENMODE
 70
1
  9
$FILLMODE
 70
1
  9
$QTEXTMODE
 70
0
  9
$DRAGMODE
 70
2
  9
$LTSCALE
 40
1
  9
$OSMODE
 70
0
  9
$ATTMODE
 70
1
  9
$TEXTSIZE
 40
3.5
  9
$TRACEWID
 40
0.5
  9
$TEXTSTYLE
  7
STANDARD
  9
$CLAYER
  8
0
  9
$CELTYPE
  6
BYLAYER
  9
$CECOLOR
 62
256
  9
$DIMSCALE
 40
1
  9
$DIMASZ
 40
0.18
  9
$DIMEXO
 40
0.0625
  9
$DIMDLI
 40
0.38
  9
$DIMRND
 40
0
  9
$DIMDLE
 40
0
  9
$DIMEXE
 40
0.18
  9
$DIMTP
 40
0
  9
$DIMTM
 40
0
  9
$DIMTXT
 40
0.18
  9
$DIMCEN
 40
0.09
  9
$DIMTSZ
 40
0
  9
$DIMTOL
 70
0
  9
$DIMLIM
 70
0
  9
$DIMTIH
 70
1
  9
$DIMTOH
 70
1
  9
$DIMSE1
 70
0
  9
$DIMSE2
 70
0
  9
$DIMTAD
 70
0
  9
$DIMZIN
 70
0
  9
$DIMBLK
  1

  9
$DIMASO
 70
1
  9
$DIMSHO
 70
1
  9
$DIMPOST
  1

  9
$DIMAPOST
  1

  9
$DIMALT
 70
0
  9
$DIMALTD
 70
2
  9
$DIMALTF
 40
25.4
  9
$DIMLFAC
 40
1
  9
$DIMTOFL
 70
0
  9
$DIMTVP
 40
0
  9
$DIMTIX
 70
0
  9
$DIMSOXD
 70
0
  9
$DIMSAH
 70
0
  9
$DIMBLK1
  1

  9
$DIMBLK2
  1

  9
$DIMSTYLE
  2
*UNNAMED
  9
$DIMCLRD
 70
0
  9
$DIMCLRE
 70
0
  9
$DIMCLRT
 70
0
  9
$DIMTFAC
 40
1
  9
$DIMGAP
 40
0.09
  9
$LUNITS
 70
2
  9
$LUPREC
 70
4
  9
$AXISMODE
 70
0
  9
$AXISUNIT
 10
0
 20
0
  9
$SKETCHINC
 40
0.1
  9
$FILLETRAD
 40
2
  9
$AUNITS
 70
0
  9
$AUPREC
 70
0
  9
$MENU
  1
ACAD
  9
$ELEVATION
 40
0
  9
$THICKNESS
 40
0
  9
$VIEWDIR
 10
0
 20
0
 30
1
  9
$LIMCHECK
 70
0
  9
$BLIPMODE
 70
1
  9
$CHAMFERA
 40
0
  9
$CHAMFERB
 40
0
  9
$FASTZOOM
 70
1
  9
$SKPOLY
 70
0
  9
$ANGBASE
 50
0
  9
$ANGDIR
 70
0
  9
$PDMODE
 70
0
  9
$PDSIZE
 40
0
  9
$PLINEWID
 40
0
  9
$COORDS
 70
2
  0
ENDSEC
  0
SECTION
  2
TABLES
  0
TABLE
  2
LTYPE
 70
9
  0
LTYPE
  2
CONTINUOUS
 70
64
  3
Solid line
 72
65
 73
0
 40
0
  0
LTYPE
  2
BORDER
 70
64
  3
__ __ . __ __ .
 72
65
 73
6
 40
0.1313132437485842
 49
0.03751806964245263
 49
-0.01875903482122632
 49
0.03751806964245263
 49
-0.01875903482122632
 49
0
 49
-0.01875903482122632
  0
LTYPE
  2
CENTER
 70
64
  3
____ _ ____ _
 72
65
 73
4
 40
0.1500722785698105
 49
0.09379517410613158
 49
-0.01875903482122632
 49
0.01875903482122632
 49
-0.01875903482122632
  0
LTYPE
  2
DASHDOT
 70
64
  3
__ . __ . __ .
 72
65
 73
4
 40
0.07503613928490527
 49
0.03751806964245263
 49
-0.01875903482122632
 49
0
 49
-0.01875903482122632
  0
LTYPE
  2
DASHED
 70
64
  3
__ __ __ __ __
 72
65
 73
2
 40
0.05627710446367895
 49
0.03751806964245263
 49
-0.01875903482122632
  0
LTYPE
  2
DIVIDE
 70
64
  3
__ . . __ . . 
 72
65
 73
6
 40
0.09379517410613158
 49
0.03751806964245263
 49
-0.01875903482122632
 49
0
 49
-0.01875903482122632
 49
0
 49
-0.01875903482122632
  0
LTYPE
  2
DOT
 70
64
  3
..............
 72
65
 73
4
 40
0.03751806964245263
 49
0
 49
-0.01875903482122632
 49
0
 49
-0.01875903482122632
  0
LTYPE
  2
HIDDEN
 70
64
  3
_ _ _ _ _ _ _
 72
65
 73
2
 40
0.02813855223183948
 49
0.01875903482122632
 49
-0.009379517410613158
  0
LTYPE
  2
PHANTOM
 70
64
  3
_____ _ _ _____ _ _ 
 72
65
 73
6
 40
0.1875903482122632
 49
0.09379517410613158
 49
-0.01875903482122632
 49
0.01875903482122632
 49
-0.01875903482122632
 49
0.01875903482122632
 49
-0.01875903482122632
  0
ENDTAB
  0
TABLE
  2
LAYER
 70
2
  0
LAYER
  2
0
 70
0
 62
7
  6
CONTINUOUS
  0
ENDTAB
  0
TABLE
  2
STYLE
 70
4
  0
STYLE
  2
STANDARD
 70
0
 40
0
 41
1
 50
0
 71
0
 42
3.5
  3
txt
  4

  0
STYLE
  2
SIMPLEX
 70
0
 40
0
 41
1
 50
0
 71
0
 42
3.5
  3
simplex
  4

  0
STYLE
  2
COMPLEX
 70
0
 40
0
 41
1
 50
0
 71
0
 42
3.5
  3
complex
  4

  0
STYLE
  2
ITALIC
 70
0
 40
0
 41
1
 50
0
 71
0
 42
3.5
  3
italic
  4

  0
ENDTAB
  0
TABLE
  2
VIEW
 70
0
  0
ENDTAB
  0
ENDSEC
  0
SECTION
  2
BLOCKS
  0
BLOCK
  8
0
  2
*D0
 70
1
 10
0
 20
0
 30
0
  0
LINE
  8
0
 10
1.36363845784898
 20
-1.1375
 30
0
 11
1.36363845784898
 21
1.1375
 31
0
  0
LINE
  8
0
 10
0.05000000000000004
 20
-1.1375
 30
0
 11
1.39363845784898
 21
-1.1375
 31
0
  0
LINE
  8
0
 10
0.05000000000000004
 20
1.1375
 30
0
 11
1.39363845784898
 21
1.1375
 31
0
  0
LINE
  8
0
 10
1.381316127378644
 20
1.119822330470336
 30
0
 11
1.345960788319317
 21
1.155177669529663
 31
0
  0
LINE
  8
0
 10
1.345960788319317
 20
-1.119822330470337
 30
0
 11
1.381316127378644
 21
-1.155177669529664
 31
0
  0
TEXT
  8
0
 62
7
 10
1.34863845784898
 20
-0.3246948476354703
 30
0
 40
0.05
  1
Durchmesser 2,28
 50
90
 41
0.9
  0
ENDBLK
  8
0
  0
BLOCK
  8
0
  2
*D1
 70
1
 10
0
 20
0
 30
0
  0
LINE
  8
0
 10
-1.3008729929718
 20
-1.06
 30
0
 11
-1.3008729929718
 21
1.06
 31
0
  0
LINE
  8
0
 10
-0.05000000000000004
 20
-1.06
 30
0
 11
-1.3308729929718
 21
-1.06
 31
0
  0
LINE
  8
0
 10
-0.05000000000000004
 20
1.06
 30
0
 11
-1.3308729929718
 21
1.06
 31
0
  0
LINE
  8
0
 10
-1.283195323442136
 20
1.042322330470336
 30
0
 11
-1.318550662501464
 21
1.077677669529663
 31
0
  0
LINE
  8
0
 10
-1.318550662501464
 20
-1.042322330470337
 30
0
 11
-1.283195323442136
 21
-1.077677669529664
 31
0
  0
TEXT
  8
0
 62
7
 10
-1.3158729929718
 20
-0.3171948476354703
 30
0
 40
0.05
  1
Durchmesser 2,12
 50
90
 41
0.9
  0
ENDBLK
  8
0
  0
ENDSEC
  0
SECTION
  2
ENTITIES
  0
POINT
  8
0
  6
DASHED
 10
0
 20
0
 30
0
  0
LINE
  8
0
 10
-0.6603920461801681
 20
0.8890661366523709
 30
0
 11
-0.09136293755229781
 21
-0.05666723402073877
 31
0
  0
LINE
  8
0
 10
0.9212425151636018
 20
0.52935666450423
 30
0
 11
0.6293653752895915
 21
0.8374994283817304
 31
0
  0
LINE
  8
0
 10
1.055446268994212
 20
0.1222269334730099
 30
0
 11
0.9090932092732402
 21
0.5206300077851903
 31
0
  0
LINE
  8
0
 10
1.017842697131731
 20
-0.304799104158159
 30
0
 11
1.040837315729161
 21
0.1190115554843997
 31
0
  0
LINE
  8
0
 10
0.8145529724941917
 20
-0.6822094289885499
 30
0
 11
1.003152166570413
 21
-0.3019797987584789
 31
0
  0
LINE
  8
0
 10
0.478668939694533
 20
-0.9485685511188494
 30
0
 11
0.8021722140050005
 21
-0.6738143714936905
 31
0
  0
LINE
  8
0
 10
0.0648663687018925
 20
-1.06051808292524
 30
0
 11
0.4706133140481398
 21
-0.935964303162109
 31
0
  0
LINE
  8
0
 10
-0.3594952593090675
 20
-0.9998346906035495
 30
0
 11
0.06244718424222083
 21
-1.04575638527017
 31
0
  0
LINE
  8
0
 10
-0.7253376420342502
 20
-0.7763965192143606
 30
0
 11
-0.3558842036510979
 21
-0.9853184773182403
 31
0
  0
LINE
  8
0
 10
-0.9731083387216677
 20
-0.4265752115516898
 30
0
 11
-0.7162841599955974
 21
-0.7644887640067191
 31
0
  0
LINE
  8
0
 10
-1.062474817025937
 20
-0.007315270718709144
 30
0
 11
-0.9600861713945489
 21
-0.4192142789195805
 31
0
  0
LINE
  8
0
 10
-0.9788898507214582
 20
0.4131354622330509
 30
0
 11
-1.047603734794659
 21
-0.005699385704268934
 31
0
  0
LINE
  8
0
 10
-0.7359595417489689
 20
0.7663353071003912
 30
0
 11
-0.9645905934600887
 21
0.4087432631389001
 31
0
  0
LINE
  8
0
 10
-0.6223885315895786
 20
0.8259038284220407
 30
0
 11
-0.7245597666975191
 21
0.7566499934820203
 31
0
  0
LINE
  8
0
 10
0
 20
-1.1375
 30
0
 11
0
 21
-1.06
 31
0
  0
LINE
  8
0
 10
0
 20
-1.22846366761129
 30
0
 11
0
 21
-1.1375
 31
0
  0
LINE
  8
0
 10
0
 20
1.06
 30
0
 11
0
 21
1.1375
 31
0
  0
LINE
  8
0
 10
0
 20
-1.06
 30
0
 11
0
 21
1.06
 31
0
  0
LINE
  8
0
 10
1.227811664466521
 20
0
 30
0
 11
-1.240673298322879
 21
0
 31
0
  0
LINE
  8
0
 10
0
 20
1.1375
 30
0
 11
0
 21
1.219137327641811
 31
0
  0
LINE
  8
0
 10
0.08069710461051
 20
-0.07439397942994946
 30
0
 11
0.6603920461801718
 21
0.8890661366523709
 31
0
  0
LINE
  8
0
 10
0.04473102890403242
 20
-0.1002278500274697
 30
0
 11
0.9212425151636018
 21
0.52935666450423
 31
0
  0
LINE
  8
0
 10
0.001483560788212344
 20
-0.1097464619718103
 30
0
 11
1.055446268994212
 21
0.1222269334730099
 31
0
  0
LINE
  8
0
 10
-0.04200540385757995
 20
-0.1014003595393297
 30
0
 11
1.017842697131731
 21
-0.304799104158159
 31
0
  0
LINE
  8
0
 10
-0.07865665794102826
 20
-0.07654813537566951
 30
0
 11
0.8145529724941917
 21
-0.6822094289885499
 31
0
  0
LINE
  8
0
 10
-0.1025040484401798
 20
-0.03923527649087009
 30
0
 11
0.478668939694533
 21
-0.9485685511188494
 31
0
  0
LINE
  8
0
 10
-0.1096656568653598
 20
0.00446436694635122
 30
0
 11
0.0648663687018925
 21
-1.06051808292524
 31
0
  0
LINE
  8
0
 10
-0.09897570450537752
 20
0.04743729319433988
 30
0
 11
-0.3594952593090675
 21
-0.9998346906035495
 31
0
  0
LINE
  8
0
 10
-0.07217431985442818
 20
0.08268829676256065
 30
0
 11
-0.7253376420342502
 21
-0.7763965192143606
 31
0
  0
LINE
  8
0
 10
-0.1490607958744185
 20
0.03922731549216041
 30
0
 11
-0.9731083387216677
 21
-0.4265752115516898
 31
0
  0
LINE
  8
0
 10
-0.1788283473128795
 20
0.08870135176151962
 30
0
 11
-1.062474817025937
 21
-0.007315270718709144
 31
0
  0
LINE
  8
0
 10
-0.2369049243402696
 20
0.1852253364162298
 30
0
 11
-0.9788898507214582
 21
0.4131354622330509
 31
0
  0
LINE
  8
0
 10
-0.4302937176115703
 20
0.5066398871619604
 30
0
 11
-0.7359595417489689
 21
0.7663353071003912
 31
0
  0
LINE
  8
0
  6
DASHED
 10
-0.3732284959690078
 20
0.9947897967896097
 30
0
 11
-0.6223885315895786
 21
0.8259038284220407
 31
0
  0
LINE
  8
0
  6
DASHED
 10
0.1224590155104233
 20
-0.004985170350990302
 30
0
 11
-0.3732284959690078
 21
0.9947897967896097
 31
0
  0
LINE
  8
0
 10
0.4083857086190001
 20
0.3027617456131102
 30
0
 11
0.4173788103390798
 21
0.4851751525788804
 31
0
  0
LINE
  8
0
 10
0.4173788103390798
 20
0.4851751525788804
 30
0
 11
0.5821896303000722
 21
0.5078926184196607
 31
0
  0
LINE
  8
0
 10
0.5821896303000722
 20
0.5078926184196607
 30
0
 11
0.4083857086190001
 21
0.3027617456131102
 31
0
  0
LINE
  8
0
  6
DASHED
 10
0.05272984407230252
 20
0.09626032626193047
 30
0
 11
-0.2369049243402696
 21
0.1852253364162298
 31
0
  0
LINE
  8
0
  6
DASHED
 10
0.01039918141140151
 20
0.1092627287500909
 30
0
 11
-0.1788283473128795
 21
0.08870135176151962
 31
0
  0
LINE
  8
0
  6
DASHED
 10
-0.03362427755771932
 20
0.1044791597720105
 30
0
 11
-0.1490607958744185
 21
0.03922731549216041
 31
0
  0
LINE
  8
0
  6
DASHED
 10
0.08647705368551034
 20
0.06758850533794065
 30
0
 11
-0.4302937176115703
 21
0.5066398871619604
 31
0
  0
LINE
  8
0
 10
-1.336163954116219
 20
-1.632235965184589
 30
0
 11
-1.336163954116219
 21
-1.542168243936359
 31
0
  0
LINE
  8
0
 10
-1.279412670467507
 20
-1.542168243936359
 30
0
 11
-1.279412670467507
 21
-1.632235965184589
 31
0
  0
LINE
  8
0
 10
-1.279412670467507
 20
-1.632235965184589
 30
0
 11
-1.336163954116219
 21
-1.542168243936359
 31
0
  0
LINE
  8
0
 10
-1.247537511529077
 20
-1.632235965184589
 30
0
 11
-1.198412670467507
 21
-1.632235965184589
 31
0
  0
LINE
  8
0
 10
-1.247537511529077
 20
-1.542168243936379
 30
0
 11
-1.247537511529077
 21
-1.632235965184589
 31
0
  0
LINE
  8
0
 10
-1.17020002786355
 20
-1.583115625226479
 30
0
 11
-1.17020002786355
 21
-1.542168243936379
 31
0
  0
LINE
  8
0
 10
-1.17020002786355
 20
-1.583115625226479
 30
0
 11
-1.137821704366848
 21
-1.583115625226479
 31
0
  0
LINE
  8
0
 10
-1.134523274645759
 20
-1.632235965184589
 30
0
 11
-1.17020002786355
 21
-1.632235965184589
 31
0
  0
LINE
  8
0
 10
-1.12504028919755
 20
-1.62785057831919
 30
0
 11
-1.134523274645759
 21
-1.632235965184589
 31
0
  0
LINE
  8
0
 10
-1.121123403903668
 20
-1.623727541167589
 30
0
 11
-1.12504028919755
 21
-1.62785057831919
 31
0
  0
LINE
  8
0
 10
-1.117412670467507
 20
-1.61486301129218
 30
0
 11
-1.121123403903668
 21
-1.623727541167589
 31
0
  0
LINE
  8
0
 10
-1.117618822324868
 20
-1.602700051695399
 30
0
 11
-1.117412670467507
 21
-1.61486301129218
 31
0
  0
LINE
  8
0
 10
-1.12132955576104
 20
-1.5921863069596
 30
0
 11
-1.117618822324868
 21
-1.602700051695399
 31
0
  0
LINE
  8
0
 10
-1.126277200342847
 20
-1.587032510520099
 30
0
 11
-1.12132955576104
 21
-1.5921863069596
 31
0
  0
LINE
  8
0
 10
-1.134836056774559
 20
-1.58192136618955
 30
0
 11
-1.126277200342847
 21
-1.587032510520099
 31
0
  0
LINE
  8
0
 10
-1.134836056774559
 20
-1.58192136618955
 30
0
 11
-1.137821704366848
 21
-1.583115625226479
 31
0
  0
LINE
  8
0
 10
-1.137821704366848
 20
-1.583115625226479
 30
0
 11
-1.134836056774559
 21
-1.58192136618955
 31
0
  0
LINE
  8
0
 10
-1.13163714863974
 20
-1.580641802935599
 30
0
 11
-1.134836056774559
 21
-1.58192136618955
 31
0
  0
LINE
  8
0
 10
-1.12586489662778
 20
-1.576724917641679
 30
0
 11
-1.13163714863974
 21
-1.580641802935599
 31
0
  0
LINE
  8
0
 10
-1.121123403903668
 20
-1.567654235908589
 30
0
 11
-1.12586489662778
 21
-1.576724917641679
 31
0
  0
LINE
  8
0
 10
-1.121741859476457
 20
-1.559202009748249
 30
0
 11
-1.121123403903668
 21
-1.567654235908589
 31
0
  0
LINE
  8
0
 10
-1.123803378051987
 20
-1.551162087303099
 30
0
 11
-1.121741859476457
 21
-1.559202009748249
 31
0
  0
LINE
  8
0
 10
-1.129781781921647
 20
-1.54477137971829
 30
0
 11
-1.123803378051987
 21
-1.551162087303099
 31
0
  0
LINE
  8
0
 10
-1.139883222942379
 20
-1.542168243936379
 30
0
 11
-1.129781781921647
 21
-1.54477137971829
 31
0
  0
LINE
  8
0
 10
-1.17020002786355
 20
-1.542168243936379
 30
0
 11
-1.139883222942379
 21
-1.542168243936379
 31
0
  0
LINE
  8
0
 10
-1.17020002786355
 20
-1.632235965184589
 30
0
 11
-1.17020002786355
 21
-1.583115625226479
 31
0
  0
LINE
  8
0
 10
-0.9864686994415169
 20
-1.632235965184589
 30
0
 11
-0.9554126704675073
 21
-1.632235965184589
 31
0
  0
LINE
  8
0
 10
-0.9937675818265379
 20
-1.63028470186571
 30
0
 11
-0.9864686994415169
 21
-1.632235965184589
 31
0
  0
LINE
  8
0
 10
-0.9980610420535595
 20
-1.627851741070639
 30
0
 11
-0.9937675818265379
 21
-1.63028470186571
 31
0
  0
LINE
  8
0
 10
-1.002068271599528
 20
-1.623558280843639
 30
0
 11
-0.9980610420535595
 21
-1.627851741070639
 31
0
  0
LINE
  8
0
 10
-1.004071886372509
 20
-1.61439889902614
 30
0
 11
-1.002068271599528
 21
-1.623558280843639
 31
0
  0
LINE
  8
0
 10
-1.004071886372509
 20
-1.586634522891989
 30
0
 11
-1.004071886372509
 21
-1.61439889902614
 31
0
  0
LINE
  8
0
 10
-1.002211386941537
 20
-1.57804760243831
 30
0
 11
-1.004071886372509
 21
-1.586634522891989
 31
0
  0
LINE
  8
0
 10
-0.9982041573954885
 20
-1.573181680847789
 30
0
 11
-1.002211386941537
 21
-1.57804760243831
 31
0
  0
LINE
  8
0
 10
-0.9937675818265379
 20
-1.5710349507343
 30
0
 11
-0.9982041573954885
 21
-1.573181680847789
 31
0
  0
LINE
  8
0
 10
-0.9858962380765189
 20
-1.569093112600309
 30
0
 11
-0.9937675818265379
 21
-1.5710349507343
 31
0
  0
LINE
  8
0
 10
-0.9555557858064675
 20
-1.569093112600309
 30
0
 11
-0.9858962380765189
 21
-1.569093112600309
 31
0
  0
LINE
  8
0
 10
-0.8783776718820991
 20
-1.61654250032741
 30
0
 11
-0.8782619416674678
 21
-1.569093112600309
 31
0
  0
LINE
  8
0
 10
-0.8824813350984988
 20
-1.625573765029039
 30
0
 11
-0.8783776718820991
 21
-1.61654250032741
 31
0
  0
LINE
  8
0
 10
-0.8884032907915497
 20
-1.629941207353289
 30
0
 11
-0.8824813350984988
 21
-1.625573765029039
 31
0
  0
LINE
  8
0
 10
-0.8966200043185271
 20
-1.632235965184589
 30
0
 11
-0.8884032907915497
 21
-1.629941207353289
 31
0
  0
LINE
  8
0
 10
-0.9086859890425076
 20
-1.632235965184589
 30
0
 11
-0.8966200043185271
 21
-1.632235965184589
 31
0
  0
LINE
  8
0
 10
-0.9169027025694887
 20
-1.62986718290711
 30
0
 11
-0.9086859890425076
 21
-1.632235965184589
 31
0
  0
LINE
  8
0
 10
-0.9230467316004979
 20
-1.62527766724452
 30
0
 11
-0.9169027025694887
 21
-1.62986718290711
 31
0
  0
LINE
  8
0
 10
-0.9268960028035181
 20
-1.61646875815004
 30
0
 11
-0.9230467316004979
 21
-1.62527766724452
 31
0
  0
LINE
  8
0
 10
-0.9269700272485387
 20
-1.58471227074249
 30
0
 11
-0.9268960028035181
 21
-1.61646875815004
 31
0
  0
LINE
  8
0
 10
-0.9228246582625397
 20
-1.57590336164801
 30
0
 11
-0.9269700272485387
 21
-1.58471227074249
 31
0
  0
LINE
  8
0
 10
-0.9169027025694887
 20
-1.57131384598542
 30
0
 11
-0.9228246582625397
 21
-1.57590336164801
 31
0
  0
LINE
  8
0
 10
-0.9085379401524477
 20
-1.569093112600309
 30
0
 11
-0.9169027025694887
 21
-1.57131384598542
 31
0
  0
LINE
  8
0
 10
-0.8782619416674678
 20
-1.569093112600309
 30
0
 11
-0.9085379401524477
 21
-1.569093112600309
 31
0
  0
LINE
  8
0
 10
-0.8784099905604891
 20
-1.62979315846092
 30
0
 11
-0.8783776718820991
 21
-1.61654250032741
 31
0
  0
LINE
  8
0
 10
-0.8763373060674894
 20
-1.632235965184589
 30
0
 11
-0.8784099905604891
 21
-1.62979315846092
 31
0
  0
LINE
  8
0
 10
-0.8744126704675071
 20
-1.632235965184589
 30
0
 11
-0.8763373060674894
 21
-1.632235965184589
 31
0
  0
LINE
  8
0
 10
-0.8489484686980395
 20
-1.63068180129971
 30
0
 11
-0.8489484686980395
 21
-1.63158186863294
 31
0
  0
LINE
  8
0
 10
-0.8478483864010088
 20
-1.63068180129971
 30
0
 11
-0.8489484686980395
 21
-1.63068180129971
 31
0
  0
LINE
  8
0
 10
-0.8478483864010088
 20
-1.63158186863294
 30
0
 11
-0.8478483864010088
 21
-1.63068180129971
 31
0
  0
LINE
  8
0
 10
-0.8489484686980395
 20
-1.63158186863294
 30
0
 11
-0.8478483864010088
 21
-1.63158186863294
 31
0
  0
LINE
  8
0
 10
-0.8495726704675072
 20
-1.630075965184589
 30
0
 11
-0.8495726704675072
 21
-1.632235965184589
 31
0
  0
LINE
  8
0
 10
-0.8474126704675072
 20
-1.630075965184589
 30
0
 11
-0.8495726704675072
 21
-1.630075965184589
 31
0
  0
LINE
  8
0
 10
-0.8474126704675072
 20
-1.632235965184589
 30
0
 11
-0.8474126704675072
 21
-1.630075965184589
 31
0
  0
LINE
  8
0
 10
-0.8495726704675072
 20
-1.632235965184589
 30
0
 11
-0.8474126704675072
 21
-1.632235965184589
 31
0
  0
LINE
  8
0
 10
-0.7143202458697089
 20
-1.57843808477468
 30
0
 11
-0.7062370849753679
 21
-1.578164079320799
 31
0
  0
LINE
  8
0
 10
-0.7203483658587975
 20
-1.54487241665347
 30
0
 11
-0.7145942513239171
 21
-1.542168243936379
 31
0
  0
LINE
  8
0
 10
-0.7266504913020981
 20
-1.54898249846438
 30
0
 11
-0.7203483658587975
 21
-1.54487241665347
 31
0
  0
LINE
  8
0
 10
-0.729938556750767
 20
-1.555832634815461
 30
0
 11
-0.7266504913020981
 21
-1.54898249846438
 31
0
  0
LINE
  8
0
 10
-0.7302125622049681
 20
-1.56487481479925
 30
0
 11
-0.729938556750767
 21
-1.555832634815461
 31
0
  0
LINE
  8
0
 10
-0.7263764858482391
 20
-1.57172495115068
 30
0
 11
-0.7302125622049681
 21
-1.56487481479925
 31
0
  0
LINE
  8
0
 10
-0.7200743604049386
 20
-1.575972035688399
 30
0
 11
-0.7263764858482391
 21
-1.57172495115068
 31
0
  0
LINE
  8
0
 10
-0.7143202458697089
 20
-1.57843808477468
 30
0
 11
-0.7200743604049386
 21
-1.575972035688399
 31
0
  0
LINE
  8
0
 10
-0.7245954503968496
 20
-1.5825481665856
 30
0
 11
-0.7143202458697089
 21
-1.57843808477468
 31
0
  0
LINE
  8
0
 10
-0.7308975758397975
 20
-1.58953530566378
 30
0
 11
-0.7245954503968496
 21
-1.5825481665856
 31
0
  0
LINE
  8
0
 10
-0.7345770094618201
 20
-1.59871448837469
 30
0
 11
-0.7308975758397975
 21
-1.58953530566378
 31
0
  0
LINE
  8
0
 10
-0.7345770094618201
 20
-1.61268876653137
 30
0
 11
-0.7345770094618201
 21
-1.59871448837469
 31
0
  0
LINE
  8
0
 10
-0.7303495649317301
 20
-1.621319938333889
 30
0
 11
-0.7345770094618201
 21
-1.61268876653137
 31
0
  0
LINE
  8
0
 10
-0.7243214449426377
 20
-1.62762206377718
 30
0
 11
-0.7303495649317301
 21
-1.621319938333889
 31
0
  0
LINE
  8
0
 10
-0.7163752867753174
 20
-1.632235965184589
 30
0
 11
-0.7243214449426377
 21
-1.62762206377718
 31
0
  0
LINE
  8
0
 10
-0.7041820440700285
 20
-1.632235965184589
 30
0
 11
-0.7163752867753174
 21
-1.632235965184589
 31
0
  0
LINE
  8
0
 10
-0.6962358859024498
 20
-1.628033071958169
 30
0
 11
-0.7041820440700285
 21
-1.632235965184589
 31
0
  0
LINE
  8
0
 10
-0.6902077659133575
 20
-1.62173094651485
 30
0
 11
-0.6962358859024498
 21
-1.628033071958169
 31
0
  0
LINE
  8
0
 10
-0.6854126704675073
 20
-1.61241476107718
 30
0
 11
-0.6902077659133575
 21
-1.62173094651485
 31
0
  0
LINE
  8
0
 10
-0.6859606813753197
 20
-1.59830348019369
 30
0
 11
-0.6854126704675073
 21
-1.61241476107718
 31
0
  0
LINE
  8
0
 10
-0.6899337604591491
 20
-1.58994631384509
 30
0
 11
-0.6859606813753197
 21
-1.59830348019369
 31
0
  0
LINE
  8
0
 10
-0.6955508722672786
 20
-1.58295917476658
 30
0
 11
-0.6899337604591491
 21
-1.58994631384509
 31
0
  0
LINE
  8
0
 10
-0.7062370849753679
 20
-1.578164079320799
 30
0
 11
-0.6955508722672786
 21
-1.58295917476658
 31
0
  0
LINE
  8
0
 10
-0.6992499458968194
 20
-1.575972035688399
 30
0
 11
-0.7062370849753679
 21
-1.578164079320799
 31
0
  0
LINE
  8
0
 10
-0.6945918531781573
 20
-1.57145094569645
 30
0
 11
-0.6992499458968194
 21
-1.575972035688399
 31
0
  0
LINE
  8
0
 10
-0.6899337604591491
 20
-1.56487481479925
 30
0
 11
-0.6945918531781573
 21
-1.57145094569645
 31
0
  0
LINE
  8
0
 10
-0.689796757732307
 20
-1.55596963754257
 30
0
 11
-0.6899337604591491
 21
-1.56487481479925
 31
0
  0
LINE
  8
0
 10
-0.6939068395428986
 20
-1.54898249846438
 30
0
 11
-0.689796757732307
 21
-1.55596963754257
 31
0
  0
LINE
  8
0
 10
-0.6999349595320782
 20
-1.544735413926379
 30
0
 11
-0.6939068395428986
 21
-1.54898249846438
 31
0
  0
LINE
  8
0
 10
-0.7058260767943175
 20
-1.542168243936379
 30
0
 11
-0.6999349595320782
 21
-1.544735413926379
 31
0
  0
LINE
  8
0
 10
-0.7145942513239171
 20
-1.542168243936379
 30
0
 11
-0.7058260767943175
 21
-1.542168243936379
 31
0
  0
LINE
  8
0
 10
-0.6449126704675076
 20
-1.542168243936379
 30
0
 11
-0.6449126704675076
 21
-1.632235965184589
 31
0
  0
LINE
  8
0
 10
-0.6696892965511289
 20
-1.569403481940659
 30
0
 11
-0.6449126704675076
 21
-1.542168243936379
 31
0
  0
LINE
  8
0
 10
-0.5139686994415169
 20
-1.632235965184589
 30
0
 11
-0.4829126704675075
 21
-1.632235965184589
 31
0
  0
LINE
  8
0
 10
-0.521267581826538
 20
-1.63028470186571
 30
0
 11
-0.5139686994415169
 21
-1.632235965184589
 31
0
  0
LINE
  8
0
 10
-0.5255610420535595
 20
-1.627851741070639
 30
0
 11
-0.521267581826538
 21
-1.63028470186571
 31
0
  0
LINE
  8
0
 10
-0.5295682715995281
 20
-1.623558280843639
 30
0
 11
-0.5255610420535595
 21
-1.627851741070639
 31
0
  0
LINE
  8
0
 10
-0.5315718863725089
 20
-1.61439889902614
 30
0
 11
-0.5295682715995281
 21
-1.623558280843639
 31
0
  0
LINE
  8
0
 10
-0.5315718863725089
 20
-1.586634522891989
 30
0
 11
-0.5315718863725089
 21
-1.61439889902614
 31
0
  0
LINE
  8
0
 10
-0.5297113869415371
 20
-1.57804760243831
 30
0
 11
-0.5315718863725089
 21
-1.586634522891989
 31
0
  0
LINE
  8
0
 10
-0.5257041573954885
 20
-1.573181680847789
 30
0
 11
-0.5297113869415371
 21
-1.57804760243831
 31
0
  0
LINE
  8
0
 10
-0.521267581826538
 20
-1.5710349507343
 30
0
 11
-0.5257041573954885
 21
-1.573181680847789
 31
0
  0
LINE
  8
0
 10
-0.5133962380765188
 20
-1.569093112600309
 30
0
 11
-0.521267581826538
 21
-1.5710349507343
 31
0
  0
LINE
  8
0
 10
-0.4830557858064676
 20
-1.569093112600309
 30
0
 11
-0.5133962380765188
 21
-1.569093112600309
 31
0
  0
LINE
  8
0
 10
-0.4309373215134801
 20
-1.632235965184589
 30
0
 11
-0.4309373215134801
 21
-1.569093112600309
 31
0
  0
LINE
  8
0
 10
-0.4019126704675073
 20
-1.57999010233093
 30
0
 11
-0.4019126704675073
 21
-1.632235965184589
 31
0
  0
LINE
  8
0
 10
-0.4051601838715396
 20
-1.574915862637639
 30
0
 11
-0.4019126704675073
 21
-1.57999010233093
 31
0
  0
LINE
  8
0
 10
-0.4084076972754774
 20
-1.57126241005842
 30
0
 11
-0.4051601838715396
 21
-1.574915862637639
 31
0
  0
LINE
  8
0
 10
-0.4144967849095083
 20
-1.569093112600309
 30
0
 11
-0.4084076972754774
 21
-1.57126241005842
 31
0
  0
LINE
  8
0
 10
-0.4585411854474987
 20
-1.569093112600309
 30
0
 11
-0.4144967849095083
 21
-1.569093112600309
 31
0
  0
LINE
  8
0
 10
-0.4593530637985275
 20
-1.632235965184589
 30
0
 11
-0.4585411854474987
 21
-1.569093112600309
 31
0
  0
LINE
  8
0
 10
-0.2576589727375467
 20
-1.569093112600309
 30
0
 11
-0.2888717886856393
 21
-1.569093112600309
 31
0
  0
LINE
  8
0
 10
-0.2506463210335896
 20
-1.571464296757
 30
0
 11
-0.2576589727375467
 21
-1.569093112600309
 31
0
  0
LINE
  8
0
 10
-0.2462097454645482
 20
-1.57375414221135
 30
0
 11
-0.2506463210335896
 21
-1.571464296757
 31
0
  0
LINE
  8
0
 10
-0.2429180926255867
 20
-1.577904487097499
 30
0
 11
-0.2462097454645482
 21
-1.57375414221135
 31
0
  0
LINE
  8
0
 10
-0.2399126704675073
 20
-1.58677763823311
 30
0
 11
-0.2429180926255867
 21
-1.577904487097499
 31
0
  0
LINE
  8
0
 10
-0.2399126704675073
 20
-1.61425578368533
 30
0
 11
-0.2399126704675073
 21
-1.58677763823311
 31
0
  0
LINE
  8
0
 10
-0.2419162852376103
 20
-1.62327205016201
 30
0
 11
-0.2399126704675073
 21
-1.61425578368533
 31
0
  0
LINE
  8
0
 10
-0.24678220682955
 20
-1.627565510388989
 30
0
 11
-0.2419162852376103
 21
-1.62327205016201
 31
0
  0
LINE
  8
0
 10
-0.2500738596685878
 20
-1.62985535584332
 30
0
 11
-0.24678220682955
 21
-1.627565510388989
 31
0
  0
LINE
  8
0
 10
-0.2582314341026286
 20
-1.632235965184589
 30
0
 11
-0.2500738596685878
 21
-1.62985535584332
 31
0
  0
LINE
  8
0
 10
-0.2885718863725997
 20
-1.632235965184589
 30
0
 11
-0.2582314341026286
 21
-1.632235965184589
 31
0
  0
LINE
  8
0
 10
-0.289001232395578
 20
-1.541839421191289
 30
0
 11
-0.2885718863725997
 21
-1.632235965184589
 31
0
  0
LINE
  8
0
 10
-0.1589126704675073
 20
-1.60051671095892
 30
0
 11
-0.2074287710334684
 21
-1.60065982629967
 31
0
  0
LINE
  8
0
 10
-0.1589126704675073
 20
-1.58692075357361
 30
0
 11
-0.1589126704675073
 21
-1.60051671095892
 31
0
  0
LINE
  8
0
 10
-0.1604869392174187
 20
-1.5784769484607
 30
0
 11
-0.1589126704675073
 21
-1.58692075357361
 31
0
  0
LINE
  8
0
 10
-0.1644941687633873
 20
-1.574183488233719
 30
0
 11
-0.1604869392174187
 21
-1.5784769484607
 31
0
  0
LINE
  8
0
 10
-0.1693600903524384
 20
-1.57103495073404
 30
0
 11
-0.1644941687633873
 21
-1.574183488233719
 31
0
  0
LINE
  8
0
 10
-0.1768020880794684
 20
-1.569093112600309
 30
0
 11
-0.1693600903524384
 21
-1.57103495073404
 31
0
  0
LINE
  8
0
 10
-0.1893962380794073
 20
-1.569093112600309
 30
0
 11
-0.1768020880794684
 21
-1.569093112600309
 31
0
  0
LINE
  8
0
 10
-0.1972675818294192
 20
-1.57103495073404
 30
0
 11
-0.1893962380794073
 21
-1.569093112600309
 31
0
  0
LINE
  8
0
 10
-0.2011316960334589
 20
-1.573897257551829
 30
0
 11
-0.1972675818294192
 21
-1.57103495073404
 31
0
  0
LINE
  8
0
 10
-0.2049958102374185
 20
-1.57761825641528
 30
0
 11
-0.2011316960334589
 21
-1.573897257551829
 31
0
  0
LINE
  8
0
 10
-0.2074287710334684
 20
-1.58706386891442
 30
0
 11
-0.2049958102374185
 21
-1.57761825641528
 31
0
  0
LINE
  8
0
 10
-0.2074287710334684
 20
-1.613683322321529
 30
0
 11
-0.2074287710334684
 21
-1.58706386891442
 31
0
  0
LINE
  8
0
 10
-0.2047095795534769
 20
-1.62284270413899
 30
0
 11
-0.2074287710334684
 21
-1.613683322321529
 31
0
  0
LINE
  8
0
 10
-0.2019903880764577
 20
-1.627136164365749
 30
0
 11
-0.2047095795534769
 21
-1.62284270413899
 31
0
  0
LINE
  8
0
 10
-0.1971244664874903
 20
-1.62985535584269
 30
0
 11
-0.2019903880764577
 21
-1.627136164365749
 31
0
  0
LINE
  8
0
 10
-0.1888237767145001
 20
-1.632235965184589
 30
0
 11
-0.1971244664874903
 21
-1.62985535584269
 31
0
  0
LINE
  8
0
 10
-0.1589126704675073
 20
-1.632235965184589
 30
0
 11
-0.1888237767145001
 21
-1.632235965184589
 31
0
  0
LINE
  8
0
 10
-0.1323323447215589
 20
-1.632235965184589
 30
0
 11
-0.1323323447215589
 21
-1.569093112600309
 31
0
  0
LINE
  8
0
 10
-0.1319126704675073
 20
-1.54202962742895
 30
0
 11
-0.1319126704675073
 21
-1.54678593562449
 31
0
  0
LINE
  8
0
 10
0.02178343080733248
 20
-1.546724025031899
 30
0
 11
0.02746504572436243
 21
-1.55120375987015
 31
0
  0
LINE
  8
0
 10
0.01632033954107101
 20
-1.54486657400108
 30
0
 11
0.02178343080733248
 21
-1.546724025031899
 31
0
  0
LINE
  8
0
 10
0.005612680658559839
 20
-1.542168243936379
 30
0
 11
0.01632033954107101
 21
-1.54486657400108
 31
0
  0
LINE
  8
0
 10
-0.002581956241039734
 20
-1.542168243936379
 30
0
 11
0.005612680658559839
 21
-1.542168243936379
 31
0
  0
LINE
  8
0
 10
-0.01645820805793846
 20
-1.546833286857051
 30
0
 11
-0.002581956241039734
 21
-1.542168243936379
 31
0
  0
LINE
  8
0
 10
-0.02301391757773672
 20
-1.55142228352088
 30
0
 11
-0.01645820805793846
 21
-1.546833286857051
 31
0
  0
LINE
  8
0
 10
-0.02465284495753804
 20
-1.55819651669138
 30
0
 11
-0.02301391757773672
 21
-1.55142228352088
 31
0
  0
LINE
  8
0
 10
-0.02498063043343791
 20
-1.563222560656599
 30
0
 11
-0.02465284495753804
 21
-1.55819651669138
 31
0
  0
LINE
  8
0
 10
-0.02279539392704828
 20
-1.569450484700159
 30
0
 11
-0.02498063043343791
 21
-1.563222560656599
 31
0
  0
LINE
  8
0
 10
-0.01744156448591821
 20
-1.573274648586659
 30
0
 11
-0.02279539392704828
 21
-1.569450484700159
 31
0
  0
LINE
  8
0
 10
0.01752221961949181
 20
-1.589773184211379
 30
0
 11
-0.01744156448591821
 21
-1.573274648586659
 31
0
  0
LINE
  8
0
 10
0.02342235818721019
 20
-1.594143657224789
 30
0
 11
0.01752221961949181
 21
-1.589773184211379
 31
0
  0
LINE
  8
0
 10
0.02757430754984307
 20
-1.600699366744289
 30
0
 11
0.02342235818721019
 21
-1.594143657224789
 31
0
  0
LINE
  8
0
 10
0.02954102040588987
 20
-1.607255076264089
 30
0
 11
0.02757430754984307
 21
-1.600699366744289
 31
0
  0
LINE
  8
0
 10
0.03008732953249273
 20
-1.612499643879999
 30
0
 11
0.02954102040588987
 21
-1.607255076264089
 31
0
  0
LINE
  8
0
 10
0.02779283120053151
 20
-1.618399782447679
 30
0
 11
0.03008732953249273
 21
-1.612499643879999
 31
0
  0
LINE
  8
0
 10
0.02407792913929006
 20
-1.62550180109408
 30
0
 11
0.02779283120053151
 21
-1.618399782447679
 31
0
  0
LINE
  8
0
 10
0.01795926692087232
 20
-1.62987227410718
 30
0
 11
0.02407792913929006
 21
-1.62550180109408
 31
0
  0
LINE
  8
0
 10
0.008125702641213138
 20
-1.632235965184589
 30
0
 11
0.01795926692087232
 21
-1.62987227410718
 31
0
  0
LINE
  8
0
 10
-0.004876454572917284
 20
-1.632235965184589
 30
0
 11
0.008125702641213138
 21
-1.632235965184589
 31
0
  0
LINE
  8
0
 10
-0.01438223337676027
 20
-1.630090797757899
 30
0
 11
-0.004876454572917284
 21
-1.632235965184589
 31
0
  0
LINE
  8
0
 10
-0.02279539392704828
 20
-1.625829586569989
 30
0
 11
-0.01438223337676027
 21
-1.630090797757899
 31
0
  0
LINE
  8
0
 10
-0.02703016492004826
 20
-1.62102206625548
 30
0
 11
-0.02279539392704828
 21
-1.625829586569989
 31
0
  0
LINE
  8
0
 10
0.05808509670946296
 20
-1.632235965184589
 30
0
 11
0.05808509670946296
 21
-1.541959943764599
 31
0
  0
LINE
  8
0
 10
0.05055687049241168
 20
-1.569093112600309
 30
0
 11
0.07058732953249275
 21
-1.569093112600309
 31
0
  0
LINE
  8
0
 10
0.1515873295324927
 20
-1.60051671095892
 30
0
 11
0.1030712289665316
 21
-1.60065982629967
 31
0
  0
LINE
  8
0
 10
0.1515873295324927
 20
-1.58692075357361
 30
0
 11
0.1515873295324927
 21
-1.60051671095892
 31
0
  0
LINE
  8
0
 10
0.1500130607825813
 20
-1.5784769484607
 30
0
 11
0.1515873295324927
 21
-1.58692075357361
 31
0
  0
LINE
  8
0
 10
0.1460058312366127
 20
-1.574183488233719
 30
0
 11
0.1500130607825813
 21
-1.5784769484607
 31
0
  0
LINE
  8
0
 10
0.1411399096475616
 20
-1.57103495073404
 30
0
 11
0.1460058312366127
 21
-1.574183488233719
 31
0
  0
LINE
  8
0
 10
0.1336979119205316
 20
-1.569093112600309
 30
0
 11
0.1411399096475616
 21
-1.57103495073404
 31
0
  0
LINE
  8
0
 10
0.1211037619205927
 20
-1.569093112600309
 30
0
 11
0.1336979119205316
 21
-1.569093112600309
 31
0
  0
LINE
  8
0
 10
0.1132324181705808
 20
-1.57103495073404
 30
0
 11
0.1211037619205927
 21
-1.569093112600309
 31
0
  0
LINE
  8
0
 10
0.1093683039665411
 20
-1.573897257551829
 30
0
 11
0.1132324181705808
 21
-1.57103495073404
 31
0
  0
LINE
  8
0
 10
0.1055041897625815
 20
-1.57761825641528
 30
0
 11
0.1093683039665411
 21
-1.573897257551829
 31
0
  0
LINE
  8
0
 10
0.1030712289665316
 20
-1.58706386891442
 30
0
 11
0.1055041897625815
 21
-1.57761825641528
 31
0
  0
LINE
  8
0
 10
0.1030712289665316
 20
-1.613683322321529
 30
0
 11
0.1030712289665316
 21
-1.58706386891442
 31
0
  0
LINE
  8
0
 10
0.1057904204465231
 20
-1.62284270413899
 30
0
 11
0.1030712289665316
 21
-1.613683322321529
 31
0
  0
LINE
  8
0
 10
0.1085096119235423
 20
-1.627136164365749
 30
0
 11
0.1057904204465231
 21
-1.62284270413899
 31
0
  0
LINE
  8
0
 10
0.1133755335125097
 20
-1.62985535584269
 30
0
 11
0.1085096119235423
 21
-1.627136164365749
 31
0
  0
LINE
  8
0
 10
0.1216762232854999
 20
-1.632235965184589
 30
0
 11
0.1133755335125097
 21
-1.62985535584269
 31
0
  0
LINE
  8
0
 10
0.1515873295324927
 20
-1.632235965184589
 30
0
 11
0.1216762232854999
 21
-1.632235965184589
 31
0
  0
LINE
  8
0
 10
0.1781676552784411
 20
-1.632235965184589
 30
0
 11
0.1781676552784411
 21
-1.569093112600309
 31
0
  0
LINE
  8
0
 10
0.1785873295324927
 20
-1.54202962742895
 30
0
 11
0.1785873295324927
 21
-1.54678593562449
 31
0
  0
LINE
  8
0
 10
0.2591813903554903
 20
-1.580801980681919
 30
0
 11
0.2595873295324927
 21
-1.632235965184589
 31
0
  0
LINE
  8
0
 10
0.2565427857155228
 20
-1.57613368016409
 30
0
 11
0.2591813903554903
 21
-1.580801980681919
 31
0
  0
LINE
  8
0
 10
0.2530923027245226
 20
-1.57227725799701
 30
0
 11
0.2565427857155228
 21
-1.57613368016409
 31
0
  0
LINE
  8
0
 10
0.2465972759164615
 20
-1.569093112600309
 30
0
 11
0.2530923027245226
 21
-1.57227725799701
 31
0
  0
LINE
  8
0
 10
0.2106716588884919
 20
-1.569093112600309
 30
0
 11
0.2465972759164615
 21
-1.569093112600309
 31
0
  0
LINE
  8
0
 10
0.2100627501245217
 20
-1.632235965184589
 30
0
 11
0.2106716588884919
 21
-1.569093112600309
 31
0
  0
LINE
  8
0
 10
0.3357477555364931
 20
-1.575836961739609
 30
0
 11
0.3400495990895215
 21
-1.582693024900889
 31
0
  0
LINE
  8
0
 10
0.3296982880415198
 20
-1.571266252965139
 30
0
 11
0.3357477555364931
 21
-1.575836961739609
 31
0
  0
LINE
  8
0
 10
0.3201535726595102
 20
-1.569093112600309
 30
0
 11
0.3296982880415198
 21
-1.571266252965139
 31
0
  0
LINE
  8
0
 10
0.3124909138324801
 20
-1.569093112600309
 30
0
 11
0.3201535726595102
 21
-1.569093112600309
 31
0
  0
LINE
  8
0
 10
0.303349496283543
 20
-1.571266252965139
 30
0
 11
0.3124909138324801
 21
-1.569093112600309
 31
0
  0
LINE
  8
0
 10
0.2982410570645297
 20
-1.575568096517489
 30
0
 11
0.303349496283543
 21
-1.571266252965139
 31
0
  0
LINE
  8
0
 10
0.2938047809015297
 20
-1.579869940069919
 30
0
 11
0.2982410570645297
 21
-1.575568096517489
 31
0
  0
LINE
  8
0
 10
0.2913849939034917
 20
-1.584440648844089
 30
0
 11
0.2938047809015297
 21
-1.579869940069919
 31
0
  0
LINE
  8
0
 10
0.2911161286804818
 20
-1.58941465545165
 30
0
 11
0.2913849939034917
 21
-1.584440648844089
 31
0
  0
LINE
  8
0
 10
0.2932670504585622
 20
-1.59411979683704
 30
0
 11
0.2911161286804818
 21
-1.58941465545165
 31
0
  0
LINE
  8
0
 10
0.2973000287884825
 20
-1.596001853391079
 30
0
 11
0.2932670504585622
 21
-1.59411979683704
 31
0
  0
LINE
  8
0
 10
0.3334624011485212
 20
-1.605681001383709
 30
0
 11
0.2973000287884825
 21
-1.596001853391079
 31
0
  0
LINE
  8
0
 10
0.33762981209156
 20
-1.6071597601048
 30
0
 11
0.3334624011485212
 21
-1.605681001383709
 31
0
  0
LINE
  8
0
 10
0.3405873295324927
 20
-1.61226819932322
 30
0
 11
0.33762981209156
 21
-1.6071597601048
 31
0
  0
LINE
  8
0
 10
0.3399151664764831
 20
-1.61657004287559
 30
0
 11
0.3405873295324927
 21
-1.61226819932322
 31
0
  0
LINE
  8
0
 10
0.3383019751445099
 20
-1.62100631903895
 30
0
 11
0.3399151664764831
 21
-1.61657004287559
 31
0
  0
LINE
  8
0
 10
0.3348067272605331
 20
-1.625173729980399
 30
0
 11
0.3383019751445099
 21
-1.62100631903895
 31
0
  0
LINE
  8
0
 10
0.3284883945425427
 20
-1.63014773658764
 30
0
 11
0.3348067272605331
 21
-1.625173729980399
 31
0
  0
LINE
  8
0
 10
0.3206913031025724
 20
-1.632235965184589
 30
0
 11
0.3284883945425427
 21
-1.63014773658764
 31
0
  0
LINE
  8
0
 10
0.3114154529435727
 20
-1.632235965184589
 30
0
 11
0.3206913031025724
 21
-1.632235965184589
 31
0
  0
LINE
  8
0
 10
0.3018707375615522
 20
-1.630282169198819
 30
0
 11
0.3114154529435727
 21
-1.632235965184589
 31
0
  0
LINE
  8
0
 10
0.2958212700664917
 20
-1.62584589303551
 30
0
 11
0.3018707375615522
 21
-1.630282169198819
 31
0
  0
LINE
  8
0
 10
0.2913849939034917
 20
-1.61885539726274
 30
0
 11
0.2958212700664917
 21
-1.62584589303551
 31
0
  0
LINE
  8
0
 10
0.368585096709463
 20
-1.632235965184589
 30
0
 11
0.368585096709463
 21
-1.541959943764599
 31
0
  0
LINE
  8
0
 10
0.3610568704924117
 20
-1.569093112600309
 30
0
 11
0.3810873295324927
 21
-1.569093112600309
 31
0
  0
LINE
  8
0
 10
0.4312437108544727
 20
-1.632235965184589
 30
0
 11
0.4620873295324927
 21
-1.632235965184589
 31
0
  0
LINE
  8
0
 10
0.4240114140635234
 20
-1.62972816293022
 30
0
 11
0.4312437108544727
 21
-1.632235965184589
 31
0
  0
LINE
  8
0
 10
0.4189062633845133
 20
-1.6280264460376
 30
0
 11
0.4240114140635234
 21
-1.62972816293022
 31
0
  0
LINE
  8
0
 10
0.4157155442134899
 20
-1.623772153806729
 30
0
 11
0.4189062633845133
 21
-1.6280264460376
 31
0
  0
LINE
  8
0
 10
0.4131629688725006
 20
-1.61462542550979
 30
0
 11
0.4157155442134899
 21
-1.623772153806729
 31
0
  0
LINE
  8
0
 10
0.4131629688725006
 20
-1.569093112600309
 30
0
 11
0.4131629688725006
 21
-1.61462542550979
 31
0
  0
LINE
  8
0
 10
0.4620873295324927
 20
-1.569093112600309
 30
0
 11
0.4620873295324927
 21
-1.632235965184589
 31
0
  0
LINE
  8
0
 10
0.4781146062394619
 20
-1.57361102687019
 30
0
 11
0.5021579835095108
 21
-1.57361102687019
 31
0
  0
LINE
  8
0
 10
0.4862721806705305
 20
-1.557582108689539
 30
0
 11
0.4864152960125431
 21
-1.632235965184589
 31
0
  0
LINE
  8
0
 10
0.4885620261244804
 20
-1.54913830357665
 30
0
 11
0.4862721806705305
 21
-1.557582108689539
 31
0
  0
LINE
  8
0
 10
0.4927123710125527
 20
-1.543986151304489
 30
0
 11
0.4885620261244804
 21
-1.54913830357665
 31
0
  0
LINE
  8
0
 10
0.4977214079435325
 20
-1.5422687672137
 30
0
 11
0.4927123710125527
 21
-1.543986151304489
 31
0
  0
LINE
  8
0
 10
0.5025873295324926
 20
-1.54241188255451
 30
0
 11
0.4977214079435325
 21
-1.5422687672137
 31
0
  0
LINE
  8
0
 10
0.5835873295324927
 20
-1.60051671095892
 30
0
 11
0.5350712289665317
 21
-1.60065982629967
 31
0
  0
LINE
  8
0
 10
0.5835873295324927
 20
-1.58692075357361
 30
0
 11
0.5835873295324927
 21
-1.60051671095892
 31
0
  0
LINE
  8
0
 10
0.5820130607825813
 20
-1.5784769484607
 30
0
 11
0.5835873295324927
 21
-1.58692075357361
 31
0
  0
LINE
  8
0
 10
0.5780058312366129
 20
-1.574183488233719
 30
0
 11
0.5820130607825813
 21
-1.5784769484607
 31
0
  0
LINE
  8
0
 10
0.5731399096475616
 20
-1.57103495073404
 30
0
 11
0.5780058312366129
 21
-1.574183488233719
 31
0
  0
LINE
  8
0
 10
0.5656979119205316
 20
-1.569093112600309
 30
0
 11
0.5731399096475616
 21
-1.57103495073404
 31
0
  0
LINE
  8
0
 10
0.5531037619205926
 20
-1.569093112600309
 30
0
 11
0.5656979119205316
 21
-1.569093112600309
 31
0
  0
LINE
  8
0
 10
0.5452324181705808
 20
-1.57103495073404
 30
0
 11
0.5531037619205926
 21
-1.569093112600309
 31
0
  0
LINE
  8
0
 10
0.5413683039665411
 20
-1.573897257551829
 30
0
 11
0.5452324181705808
 21
-1.57103495073404
 31
0
  0
LINE
  8
0
 10
0.5375041897625815
 20
-1.57761825641528
 30
0
 11
0.5413683039665411
 21
-1.573897257551829
 31
0
  0
LINE
  8
0
 10
0.5350712289665317
 20
-1.58706386891442
 30
0
 11
0.5375041897625815
 21
-1.57761825641528
 31
0
  0
LINE
  8
0
 10
0.5350712289665317
 20
-1.613683322321529
 30
0
 11
0.5350712289665317
 21
-1.58706386891442
 31
0
  0
LINE
  8
0
 10
0.537790420446523
 20
-1.62284270413899
 30
0
 11
0.5350712289665317
 21
-1.613683322321529
 31
0
  0
LINE
  8
0
 10
0.5405096119235423
 20
-1.627136164365749
 30
0
 11
0.537790420446523
 21
-1.62284270413899
 31
0
  0
LINE
  8
0
 10
0.5453755335125098
 20
-1.62985535584269
 30
0
 11
0.5405096119235423
 21
-1.627136164365749
 31
0
  0
LINE
  8
0
 10
0.5536762232854998
 20
-1.632235965184589
 30
0
 11
0.5453755335125098
 21
-1.62985535584269
 31
0
  0
LINE
  8
0
 10
0.5835873295324927
 20
-1.632235965184589
 30
0
 11
0.5536762232854998
 21
-1.632235965184589
 31
0
  0
LINE
  8
0
 10
0.6641813903554903
 20
-1.580801980681919
 30
0
 11
0.6645873295324928
 21
-1.632235965184589
 31
0
  0
LINE
  8
0
 10
0.6615427857155228
 20
-1.57613368016409
 30
0
 11
0.6641813903554903
 21
-1.580801980681919
 31
0
  0
LINE
  8
0
 10
0.6580923027245226
 20
-1.57227725799701
 30
0
 11
0.6615427857155228
 21
-1.57613368016409
 31
0
  0
LINE
  8
0
 10
0.6515972759164614
 20
-1.569093112600309
 30
0
 11
0.6580923027245226
 21
-1.57227725799701
 31
0
  0
LINE
  8
0
 10
0.6156716588884921
 20
-1.569093112600309
 30
0
 11
0.6515972759164614
 21
-1.569093112600309
 31
0
  0
LINE
  8
0
 10
0.6150627501245217
 20
-1.632235965184589
 30
0
 11
0.6156716588884921
 21
-1.569093112600309
 31
0
  0
LINE
  8
0
 10
-1.336163954116219
 20
-1.489157361304289
 30
0
 11
-1.336163954116219
 21
-1.39908964005606
 31
0
  0
LINE
  8
0
 10
-1.2794126704675
 20
-1.39908964005606
 30
0
 11
-1.2794126704675
 21
-1.489157361304289
 31
0
  0
LINE
  8
0
 10
-1.2794126704675
 20
-1.489157361304289
 30
0
 11
-1.336163954116219
 21
-1.39908964005606
 31
0
  0
LINE
  8
0
 10
-1.24753751152907
 20
-1.489157361304289
 30
0
 11
-1.1984126704675
 21
-1.489157361304289
 31
0
  0
LINE
  8
0
 10
-1.24753751152907
 20
-1.39908964005608
 30
0
 11
-1.24753751152907
 21
-1.489157361304289
 31
0
  0
LINE
  8
0
 10
-1.170200027863539
 20
-1.440037021346179
 30
0
 11
-1.170200027863539
 21
-1.39908964005608
 31
0
  0
LINE
  8
0
 10
-1.170200027863539
 20
-1.440037021346179
 30
0
 11
-1.137821704366837
 21
-1.440037021346179
 31
0
  0
LINE
  8
0
 10
-1.134523274645748
 20
-1.489157361304289
 30
0
 11
-1.170200027863539
 21
-1.489157361304289
 31
0
  0
LINE
  8
0
 10
-1.125040289197539
 20
-1.484771974438891
 30
0
 11
-1.134523274645748
 21
-1.489157361304289
 31
0
  0
LINE
  8
0
 10
-1.121123403903668
 20
-1.480648937287289
 30
0
 11
-1.125040289197539
 21
-1.484771974438891
 31
0
  0
LINE
  8
0
 10
-1.1174126704675
 20
-1.47178440741188
 30
0
 11
-1.121123403903668
 21
-1.480648937287289
 31
0
  0
LINE
  8
0
 10
-1.117618822324857
 20
-1.4596214478151
 30
0
 11
-1.1174126704675
 21
-1.47178440741188
 31
0
  0
LINE
  8
0
 10
-1.121329555761029
 20
-1.4491077030793
 30
0
 11
-1.117618822324857
 21
-1.4596214478151
 31
0
  0
LINE
  8
0
 10
-1.12627720034284
 20
-1.443953906639799
 30
0
 11
-1.121329555761029
 21
-1.4491077030793
 31
0
  0
LINE
  8
0
 10
-1.134836056774559
 20
-1.43884276230925
 30
0
 11
-1.12627720034284
 21
-1.443953906639799
 31
0
  0
LINE
  8
0
 10
-1.134836056774559
 20
-1.43884276230925
 30
0
 11
-1.137821704366837
 21
-1.440037021346179
 31
0
  0
LINE
  8
0
 10
-1.137821704366837
 20
-1.440037021346179
 30
0
 11
-1.134836056774559
 21
-1.43884276230925
 31
0
  0
LINE
  8
0
 10
-1.131637148639729
 20
-1.437563199055299
 30
0
 11
-1.134836056774559
 21
-1.43884276230925
 31
0
  0
LINE
  8
0
 10
-1.125864896627769
 20
-1.433646313761379
 30
0
 11
-1.131637148639729
 21
-1.437563199055299
 31
0
  0
LINE
  8
0
 10
-1.121123403903668
 20
-1.424575632028289
 30
0
 11
-1.125864896627769
 21
-1.433646313761379
 31
0
  0
LINE
  8
0
 10
-1.121741859476449
 20
-1.416123405867949
 30
0
 11
-1.121123403903668
 21
-1.424575632028289
 31
0
  0
LINE
  8
0
 10
-1.12380337805198
 20
-1.408083483422799
 30
0
 11
-1.121741859476449
 21
-1.416123405867949
 31
0
  0
LINE
  8
0
 10
-1.12978178192164
 20
-1.40169277583799
 30
0
 11
-1.12380337805198
 21
-1.408083483422799
 31
0
  0
LINE
  8
0
 10
-1.139883222942368
 20
-1.39908964005608
 30
0
 11
-1.12978178192164
 21
-1.40169277583799
 31
0
  0
LINE
  8
0
 10
-1.170200027863539
 20
-1.39908964005608
 30
0
 11
-1.139883222942368
 21
-1.39908964005608
 31
0
  0
LINE
  8
0
 10
-1.170200027863539
 20
-1.489157361304289
 30
0
 11
-1.170200027863539
 21
-1.440037021346179
 31
0
  0
LINE
  8
0
 10
-0.9864686994415096
 20
-1.489157361304289
 30
0
 11
-0.9554126704675
 21
-1.489157361304289
 31
0
  0
LINE
  8
0
 10
-0.9937675818265269
 20
-1.48720609798541
 30
0
 11
-0.9864686994415096
 21
-1.489157361304289
 31
0
  0
LINE
  8
0
 10
-0.9980610420535486
 20
-1.484773137190339
 30
0
 11
-0.9937675818265269
 21
-1.48720609798541
 31
0
  0
LINE
  8
0
 10
-1.002068271599517
 20
-1.480479676963339
 30
0
 11
-0.9980610420535486
 21
-1.484773137190339
 31
0
  0
LINE
  8
0
 10
-1.004071886372509
 20
-1.471320295145839
 30
0
 11
-1.002068271599517
 21
-1.480479676963339
 31
0
  0
LINE
  8
0
 10
-1.004071886372509
 20
-1.443555919011689
 30
0
 11
-1.004071886372509
 21
-1.471320295145839
 31
0
  0
LINE
  8
0
 10
-1.00221138694153
 20
-1.43496899855801
 30
0
 11
-1.004071886372509
 21
-1.443555919011689
 31
0
  0
LINE
  8
0
 10
-0.9982041573954775
 20
-1.430103076967489
 30
0
 11
-1.00221138694153
 21
-1.43496899855801
 31
0
  0
LINE
  8
0
 10
-0.9937675818265269
 20
-1.427956346854
 30
0
 11
-0.9982041573954775
 21
-1.430103076967489
 31
0
  0
LINE
  8
0
 10
-0.9858962380765189
 20
-1.426014508720009
 30
0
 11
-0.9937675818265269
 21
-1.427956346854
 31
0
  0
LINE
  8
0
 10
-0.9555557858064567
 20
-1.426014508720009
 30
0
 11
-0.9858962380765189
 21
-1.426014508720009
 31
0
  0
LINE
  8
0
 10
-0.8783776718820882
 20
-1.473463896447111
 30
0
 11
-0.878261941667457
 21
-1.426014508720009
 31
0
  0
LINE
  8
0
 10
-0.8824813350984877
 20
-1.482495161148739
 30
0
 11
-0.8783776718820882
 21
-1.473463896447111
 31
0
  0
LINE
  8
0
 10
-0.8884032907915389
 20
-1.48686260347299
 30
0
 11
-0.8824813350984877
 21
-1.482495161148739
 31
0
  0
LINE
  8
0
 10
-0.89662000431852
 20
-1.489157361304289
 30
0
 11
-0.8884032907915389
 21
-1.48686260347299
 31
0
  0
LINE
  8
0
 10
-0.9086859890424966
 20
-1.489157361304289
 30
0
 11
-0.89662000431852
 21
-1.489157361304289
 31
0
  0
LINE
  8
0
 10
-0.9169027025694777
 20
-1.48678857902681
 30
0
 11
-0.9086859890424966
 21
-1.489157361304289
 31
0
  0
LINE
  8
0
 10
-0.9230467316004979
 20
-1.48219906336422
 30
0
 11
-0.9169027025694777
 21
-1.48678857902681
 31
0
  0
LINE
  8
0
 10
-0.926896002803507
 20
-1.47339015426974
 30
0
 11
-0.9230467316004979
 21
-1.48219906336422
 31
0
  0
LINE
  8
0
 10
-0.9269700272485387
 20
-1.44163366686219
 30
0
 11
-0.926896002803507
 21
-1.47339015426974
 31
0
  0
LINE
  8
0
 10
-0.9228246582625289
 20
-1.43282475776771
 30
0
 11
-0.9269700272485387
 21
-1.44163366686219
 31
0
  0
LINE
  8
0
 10
-0.9169027025694777
 20
-1.42823524210512
 30
0
 11
-0.9228246582625289
 21
-1.43282475776771
 31
0
  0
LINE
  8
0
 10
-0.9085379401524369
 20
-1.426014508720009
 30
0
 11
-0.9169027025694777
 21
-1.42823524210512
 31
0
  0
LINE
  8
0
 10
-0.878261941667457
 20
-1.426014508720009
 30
0
 11
-0.9085379401524369
 21
-1.426014508720009
 31
0
  0
LINE
  8
0
 10
-0.878409990560478
 20
-1.48671455458062
 30
0
 11
-0.8783776718820882
 21
-1.473463896447111
 31
0
  0
LINE
  8
0
 10
-0.8763373060674786
 20
-1.489157361304289
 30
0
 11
-0.878409990560478
 21
-1.48671455458062
 31
0
  0
LINE
  8
0
 10
-0.8744126704675
 20
-1.489157361304289
 30
0
 11
-0.8763373060674786
 21
-1.489157361304289
 31
0
  0
LINE
  8
0
 10
-0.8489484686980288
 20
-1.48760319741941
 30
0
 11
-0.8489484686980288
 21
-1.48850326475264
 31
0
  0
LINE
  8
0
 10
-0.8478483864010088
 20
-1.48760319741941
 30
0
 11
-0.8489484686980288
 21
-1.48760319741941
 31
0
  0
LINE
  8
0
 10
-0.8478483864010088
 20
-1.48850326475264
 30
0
 11
-0.8478483864010088
 21
-1.48760319741941
 31
0
  0
LINE
  8
0
 10
-0.8489484686980288
 20
-1.48850326475264
 30
0
 11
-0.8478483864010088
 21
-1.48850326475264
 31
0
  0
LINE
  8
0
 10
-0.8495726704675
 20
-1.486997361304289
 30
0
 11
-0.8495726704675
 21
-1.489157361304289
 31
0
  0
LINE
  8
0
 10
-0.8474126704675001
 20
-1.486997361304289
 30
0
 11
-0.8495726704675
 21
-1.486997361304289
 31
0
  0
LINE
  8
0
 10
-0.8474126704675001
 20
-1.489157361304289
 30
0
 11
-0.8474126704675001
 21
-1.486997361304289
 31
0
  0
LINE
  8
0
 10
-0.8495726704675
 20
-1.489157361304289
 30
0
 11
-0.8474126704675001
 21
-1.489157361304289
 31
0
  0
LINE
  8
0
 10
-0.7143202458697089
 20
-1.43535948089438
 30
0
 11
-0.7062370849753679
 21
-1.435085475440499
 31
0
  0
LINE
  8
0
 10
-0.7203483658587903
 20
-1.40179381277317
 30
0
 11
-0.7145942513239097
 21
-1.39908964005608
 31
0
  0
LINE
  8
0
 10
-0.7266504913020871
 20
-1.40590389458408
 30
0
 11
-0.7203483658587903
 21
-1.40179381277317
 31
0
  0
LINE
  8
0
 10
-0.7299385567507598
 20
-1.412754030935159
 30
0
 11
-0.7266504913020871
 21
-1.40590389458408
 31
0
  0
LINE
  8
0
 10
-0.7302125622049681
 20
-1.42179621091895
 30
0
 11
-0.7299385567507598
 21
-1.412754030935159
 31
0
  0
LINE
  8
0
 10
-0.7263764858482283
 20
-1.42864634727038
 30
0
 11
-0.7302125622049681
 21
-1.42179621091895
 31
0
  0
LINE
  8
0
 10
-0.7200743604049386
 20
-1.432893431808099
 30
0
 11
-0.7263764858482283
 21
-1.42864634727038
 31
0
  0
LINE
  8
0
 10
-0.7143202458697089
 20
-1.43535948089438
 30
0
 11
-0.7200743604049386
 21
-1.432893431808099
 31
0
  0
LINE
  8
0
 10
-0.7245954503968387
 20
-1.439469562705299
 30
0
 11
-0.7143202458697089
 21
-1.43535948089438
 31
0
  0
LINE
  8
0
 10
-0.7308975758397901
 20
-1.44645670178348
 30
0
 11
-0.7245954503968387
 21
-1.439469562705299
 31
0
  0
LINE
  8
0
 10
-0.7345770094618093
 20
-1.45563588449439
 30
0
 11
-0.7308975758397901
 21
-1.44645670178348
 31
0
  0
LINE
  8
0
 10
-0.7345770094618093
 20
-1.46961016265107
 30
0
 11
-0.7345770094618093
 21
-1.45563588449439
 31
0
  0
LINE
  8
0
 10
-0.7303495649317192
 20
-1.478241334453589
 30
0
 11
-0.7345770094618093
 21
-1.46961016265107
 31
0
  0
LINE
  8
0
 10
-0.7243214449426268
 20
-1.48454345989688
 30
0
 11
-0.7303495649317192
 21
-1.478241334453589
 31
0
  0
LINE
  8
0
 10
-0.7163752867753103
 20
-1.489157361304289
 30
0
 11
-0.7243214449426268
 21
-1.48454345989688
 31
0
  0
LINE
  8
0
 10
-0.7041820440700285
 20
-1.489157361304289
 30
0
 11
-0.7163752867753103
 21
-1.489157361304289
 31
0
  0
LINE
  8
0
 10
-0.6962358859024389
 20
-1.484954468077869
 30
0
 11
-0.7041820440700285
 21
-1.489157361304289
 31
0
  0
LINE
  8
0
 10
-0.6902077659133502
 20
-1.47865234263455
 30
0
 11
-0.6962358859024389
 21
-1.484954468077869
 31
0
  0
LINE
  8
0
 10
-0.6854126704675
 20
-1.46933615719688
 30
0
 11
-0.6902077659133502
 21
-1.47865234263455
 31
0
  0
LINE
  8
0
 10
-0.685960681375309
 20
-1.45522487631339
 30
0
 11
-0.6854126704675
 21
-1.46933615719688
 31
0
  0
LINE
  8
0
 10
-0.6899337604591383
 20
-1.44686770996479
 30
0
 11
-0.685960681375309
 21
-1.45522487631339
 31
0
  0
LINE
  8
0
 10
-0.6955508722672678
 20
-1.43988057088628
 30
0
 11
-0.6899337604591383
 21
-1.44686770996479
 31
0
  0
LINE
  8
0
 10
-0.7062370849753679
 20
-1.435085475440499
 30
0
 11
-0.6955508722672678
 21
-1.43988057088628
 31
0
  0
LINE
  8
0
 10
-0.6992499458968087
 20
-1.432893431808099
 30
0
 11
-0.7062370849753679
 21
-1.435085475440499
 31
0
  0
LINE
  8
0
 10
-0.6945918531781499
 20
-1.42837234181615
 30
0
 11
-0.6992499458968087
 21
-1.432893431808099
 31
0
  0
LINE
  8
0
 10
-0.6899337604591383
 20
-1.42179621091895
 30
0
 11
-0.6945918531781499
 21
-1.42837234181615
 31
0
  0
LINE
  8
0
 10
-0.6897967577322999
 20
-1.41289103366227
 30
0
 11
-0.6899337604591383
 21
-1.42179621091895
 31
0
  0
LINE
  8
0
 10
-0.6939068395428878
 20
-1.40590389458408
 30
0
 11
-0.6897967577322999
 21
-1.41289103366227
 31
0
  0
LINE
  8
0
 10
-0.6999349595320673
 20
-1.401656810046079
 30
0
 11
-0.6939068395428878
 21
-1.40590389458408
 31
0
  0
LINE
  8
0
 10
-0.7058260767943102
 20
-1.39908964005608
 30
0
 11
-0.6999349595320673
 21
-1.401656810046079
 31
0
  0
LINE
  8
0
 10
-0.7145942513239097
 20
-1.39908964005608
 30
0
 11
-0.7058260767943102
 21
-1.39908964005608
 31
0
  0
LINE
  8
0
 10
-0.6164021338404382
 20
-1.489157361304289
 30
0
 11
-0.6164021338404382
 21
-1.4530663327402
 31
0
  0
LINE
  8
0
 10
-0.6532308455271887
 20
-1.471232186335579
 30
0
 11
-0.6044126704675
 21
-1.471232186335579
 31
0
  0
LINE
  8
0
 10
-0.6164021338404382
 20
-1.39908964005608
 30
0
 11
-0.6532308455271887
 21
-1.471232186335579
 31
0
  0
LINE
  8
0
 10
-0.4734686994415097
 20
-1.489157361304289
 30
0
 11
-0.4424126704675
 21
-1.489157361304289
 31
0
  0
LINE
  8
0
 10
-0.4807675818265271
 20
-1.48720609798541
 30
0
 11
-0.4734686994415097
 21
-1.489157361304289
 31
0
  0
LINE
  8
0
 10
-0.4850610420535486
 20
-1.484773137190339
 30
0
 11
-0.4807675818265271
 21
-1.48720609798541
 31
0
  0
LINE
  8
0
 10
-0.4890682715995172
 20
-1.480479676963339
 30
0
 11
-0.4850610420535486
 21
-1.484773137190339
 31
0
  0
LINE
  8
0
 10
-0.4910718863725087
 20
-1.471320295145839
 30
0
 11
-0.4890682715995172
 21
-1.480479676963339
 31
0
  0
LINE
  8
0
 10
-0.4910718863725087
 20
-1.443555919011689
 30
0
 11
-0.4910718863725087
 21
-1.471320295145839
 31
0
  0
LINE
  8
0
 10
-0.4892113869415298
 20
-1.43496899855801
 30
0
 11
-0.4910718863725087
 21
-1.443555919011689
 31
0
  0
LINE
  8
0
 10
-0.4852041573954775
 20
-1.430103076967489
 30
0
 11
-0.4892113869415298
 21
-1.43496899855801
 31
0
  0
LINE
  8
0
 10
-0.4807675818265271
 20
-1.427956346854
 30
0
 11
-0.4852041573954775
 21
-1.430103076967489
 31
0
  0
LINE
  8
0
 10
-0.4728962380765189
 20
-1.426014508720009
 30
0
 11
-0.4807675818265271
 21
-1.427956346854
 31
0
  0
LINE
  8
0
 10
-0.4425557858064568
 20
-1.426014508720009
 30
0
 11
-0.4728962380765189
 21
-1.426014508720009
 31
0
  0
LINE
  8
0
 10
-0.3904373215134692
 20
-1.489157361304289
 30
0
 11
-0.3904373215134692
 21
-1.426014508720009
 31
0
  0
LINE
  8
0
 10
-0.3614126704675
 20
-1.43691149845063
 30
0
 11
-0.3614126704675
 21
-1.489157361304289
 31
0
  0
LINE
  8
0
 10
-0.3646601838715287
 20
-1.431837258757339
 30
0
 11
-0.3614126704675
 21
-1.43691149845063
 31
0
  0
LINE
  8
0
 10
-0.3679076972754701
 20
-1.42818380617812
 30
0
 11
-0.3646601838715287
 21
-1.431837258757339
 31
0
  0
LINE
  8
0
 10
-0.3739967849094974
 20
-1.426014508720009
 30
0
 11
-0.3679076972754701
 21
-1.42818380617812
 31
0
  0
LINE
  8
0
 10
-0.4180411854474987
 20
-1.426014508720009
 30
0
 11
-0.3739967849094974
 21
-1.426014508720009
 31
0
  0
LINE
  8
0
 10
-0.4188530637985277
 20
-1.489157361304289
 30
0
 11
-0.4180411854474987
 21
-1.426014508720009
 31
0
  0
LINE
  8
0
 10
-0.2171589727375394
 20
-1.426014508720009
 30
0
 11
-0.2483717886856284
 21
-1.426014508720009
 31
0
  0
LINE
  8
0
 10
-0.2101463210335787
 20
-1.4283856928767
 30
0
 11
-0.2171589727375394
 21
-1.426014508720009
 31
0
  0
LINE
  8
0
 10
-0.2057097454645373
 20
-1.43067553833105
 30
0
 11
-0.2101463210335787
 21
-1.4283856928767
 31
0
  0
LINE
  8
0
 10
-0.2024180926255794
 20
-1.4348258832172
 30
0
 11
-0.2057097454645373
 21
-1.43067553833105
 31
0
  0
LINE
  8
0
 10
-0.1994126704675
 20
-1.44369903435281
 30
0
 11
-0.2024180926255794
 21
-1.4348258832172
 31
0
  0
LINE
  8
0
 10
-0.1994126704675
 20
-1.47117717980503
 30
0
 11
-0.1994126704675
 21
-1.44369903435281
 31
0
  0
LINE
  8
0
 10
-0.2014162852375994
 20
-1.48019344628171
 30
0
 11
-0.1994126704675
 21
-1.47117717980503
 31
0
  0
LINE
  8
0
 10
-0.2062822068295391
 20
-1.48448690650869
 30
0
 11
-0.2014162852375994
 21
-1.48019344628171
 31
0
  0
LINE
  8
0
 10
-0.2095738596685878
 20
-1.48677675196302
 30
0
 11
-0.2062822068295391
 21
-1.48448690650869
 31
0
  0
LINE
  8
0
 10
-0.2177314341026176
 20
-1.489157361304289
 30
0
 11
-0.2095738596685878
 21
-1.48677675196302
 31
0
  0
LINE
  8
0
 10
-0.2480718863725888
 20
-1.489157361304289
 30
0
 11
-0.2177314341026176
 21
-1.489157361304289
 31
0
  0
LINE
  8
0
 10
-0.248501232395578
 20
-1.398760817310989
 30
0
 11
-0.2480718863725888
 21
-1.489157361304289
 31
0
  0
LINE
  8
0
 10
-0.1184126704675
 20
-1.45743810707862
 30
0
 11
-0.1669287710334575
 21
-1.457581222419371
 31
0
  0
LINE
  8
0
 10
-0.1184126704675
 20
-1.44384214969331
 30
0
 11
-0.1184126704675
 21
-1.45743810707862
 31
0
  0
LINE
  8
0
 10
-0.1199869392174187
 20
-1.435398344580399
 30
0
 11
-0.1184126704675
 21
-1.44384214969331
 31
0
  0
LINE
  8
0
 10
-0.12399416876338
 20
-1.431104884353419
 30
0
 11
-0.1199869392174187
 21
-1.435398344580399
 31
0
  0
LINE
  8
0
 10
-0.1288600903524384
 20
-1.42795634685374
 30
0
 11
-0.12399416876338
 21
-1.431104884353419
 31
0
  0
LINE
  8
0
 10
-0.1363020880794684
 20
-1.426014508720009
 30
0
 11
-0.1288600903524384
 21
-1.42795634685374
 31
0
  0
LINE
  8
0
 10
-0.1488962380794001
 20
-1.426014508720009
 30
0
 11
-0.1363020880794684
 21
-1.426014508720009
 31
0
  0
LINE
  8
0
 10
-0.1567675818294083
 20
-1.42795634685374
 30
0
 11
-0.1488962380794001
 21
-1.426014508720009
 31
0
  0
LINE
  8
0
 10
-0.160631696033448
 20
-1.430818653671529
 30
0
 11
-0.1567675818294083
 21
-1.42795634685374
 31
0
  0
LINE
  8
0
 10
-0.1644958102374076
 20
-1.434539652534979
 30
0
 11
-0.160631696033448
 21
-1.430818653671529
 31
0
  0
LINE
  8
0
 10
-0.1669287710334575
 20
-1.44398526503412
 30
0
 11
-0.1644958102374076
 21
-1.434539652534979
 31
0
  0
LINE
  8
0
 10
-0.1669287710334575
 20
-1.470604718441229
 30
0
 11
-0.1669287710334575
 21
-1.44398526503412
 31
0
  0
LINE
  8
0
 10
-0.1642095795534697
 20
-1.47976410025869
 30
0
 11
-0.1669287710334575
 21
-1.470604718441229
 31
0
  0
LINE
  8
0
 10
-0.1614903880764468
 20
-1.484057560485449
 30
0
 11
-0.1642095795534697
 21
-1.47976410025869
 31
0
  0
LINE
  8
0
 10
-0.1566244664874794
 20
-1.48677675196239
 30
0
 11
-0.1614903880764468
 21
-1.484057560485449
 31
0
  0
LINE
  8
0
 10
-0.1483237767144892
 20
-1.489157361304289
 30
0
 11
-0.1566244664874794
 21
-1.48677675196239
 31
0
  0
LINE
  8
0
 10
-0.1184126704675
 20
-1.489157361304289
 30
0
 11
-0.1483237767144892
 21
-1.489157361304289
 31
0
  0
LINE
  8
0
 10
-0.091832344721548
 20
-1.489157361304289
 30
0
 11
-0.091832344721548
 21
-1.426014508720009
 31
0
  0
LINE
  8
0
 10
-0.0914126704675
 20
-1.39895102354865
 30
0
 11
-0.0914126704675
 21
-1.40370733174419
 31
0
  0
LINE
  8
0
 10
0.07058732953250001
 20
-1.43992551664028
 30
0
 11
0.07058732953250001
 21
-1.489157361304289
 31
0
  0
LINE
  8
0
 10
0.01378998493937252
 20
-1.43992551664028
 30
0
 11
0.01378998493937252
 21
-1.39908964005608
 31
0
  0
LINE
  8
0
 10
0.01378998493937252
 20
-1.43992551664028
 30
0
 11
0.01378998493937252
 21
-1.39908964005608
 31
0
  0
LINE
  8
0
 10
0.01378998493937252
 20
-1.43992551664028
 30
0
 11
0.07058732953250001
 21
-1.43992551664028
 31
0
  0
LINE
  8
0
 10
0.01378998493937252
 20
-1.489157361304289
 30
0
 11
0.01378998493937252
 21
-1.43992551664028
 31
0
  0
LINE
  8
0
 10
0.07058732953250001
 20
-1.39908964005608
 30
0
 11
0.07058732953250001
 21
-1.43992551664028
 31
0
  0
LINE
  8
0
 10
0.01378998493937252
 20
-1.489157361304289
 30
0
 11
0.01378998493937252
 21
-1.43992551664028
 31
0
  0
LINE
  8
0
 10
0.1133282945735118
 20
-1.4871128104132
 30
0
 11
0.1208766987695817
 21
-1.489157361304289
 31
0
  0
LINE
  8
0
 10
0.1084683631055414
 20
-1.48473454607802
 30
0
 11
0.1133282945735118
 21
-1.4871128104132
 31
0
  0
LINE
  8
0
 10
0.1045390568135917
 20
-1.48018482300191
 30
0
 11
0.1084683631055414
 21
-1.48473454607802
 31
0
  0
LINE
  8
0
 10
0.1024710008705624
 20
-1.470981974052389
 30
0
 11
0.1045390568135917
 21
-1.48018482300191
 31
0
  0
LINE
  8
0
 10
0.1024710008705624
 20
-1.443683635595189
 30
0
 11
0.1024710008705624
 21
-1.470981974052389
 31
0
  0
LINE
  8
0
 10
0.1048492652045497
 20
-1.435101203428909
 30
0
 11
0.1024710008705624
 21
-1.443683635595189
 31
0
  0
LINE
  8
0
 10
0.1086751687025426
 20
-1.43075828594708
 30
0
 11
0.1048492652045497
 21
-1.435101203428909
 31
0
  0
LINE
  8
0
 10
0.1130180861825502
 20
-1.4283800216116
 30
0
 11
0.1086751687025426
 21
-1.43075828594708
 31
0
  0
LINE
  8
0
 10
0.1204630875815201
 20
-1.426014508720009
 30
0
 11
0.1130180861825502
 21
-1.4283800216116
 31
0
  0
LINE
  8
0
 10
0.1326646176485701
 20
-1.426014508720009
 30
0
 11
0.1204630875815201
 21
-1.426014508720009
 31
0
  0
LINE
  8
0
 10
0.1405232302356017
 20
-1.428173216017311
 30
0
 11
0.1326646176485701
 21
-1.426014508720009
 31
0
  0
LINE
  8
0
 10
0.1447627449186002
 20
-1.43024127196122
 30
0
 11
0.1405232302356017
 21
-1.428173216017311
 31
0
  0
LINE
  8
0
 10
0.1495192735895507
 20
-1.43530800902322
 30
0
 11
0.1447627449186002
 21
-1.43024127196122
 31
0
  0
LINE
  8
0
 10
0.1513805239385511
 20
-1.4438904411895
 30
0
 11
0.1495192735895507
 21
-1.43530800902322
 31
0
  0
LINE
  8
0
 10
0.1515873295325
 20
-1.471188779646689
 30
0
 11
0.1513805239385511
 21
-1.4438904411895
 31
0
  0
LINE
  8
0
 10
0.1493124679955217
 20
-1.479874614610289
 30
0
 11
0.1515873295325
 21
-1.471188779646689
 31
0
  0
LINE
  8
0
 10
0.1448661477155219
 20
-1.484217532092091
 30
0
 11
0.1493124679955217
 21
-1.479874614610289
 31
0
  0
LINE
  8
0
 10
0.1412470498145412
 20
-1.48680260202162
 30
0
 11
0.1448661477155219
 21
-1.484217532092091
 31
0
  0
LINE
  8
0
 10
0.1331816316335608
 20
-1.489157361304289
 30
0
 11
0.1412470498145412
 21
-1.48680260202162
 31
0
  0
LINE
  8
0
 10
0.1208766987695817
 20
-1.489157361304289
 30
0
 11
0.1331816316335608
 21
-1.489157361304289
 31
0
  0
LINE
  8
0
 10
0.2059872245285515
 20
-1.489157361304289
 30
0
 11
0.207327591552501
 21
-1.489157361304289
 31
0
  0
LINE
  8
0
 10
0.2022675018154732
 20
-1.48689812857508
 30
0
 11
0.2059872245285515
 21
-1.489157361304289
 31
0
  0
LINE
  8
0
 10
0.1993448625395431
 20
-1.474941876997289
 30
0
 11
0.2022675018154732
 21
-1.48689812857508
 31
0
  0
LINE
  8
0
 10
0.1996105570205109
 20
-1.399218950338
 30
0
 11
0.1993448625395431
 21
-1.474941876997289
 31
0
  0
LINE
  8
0
 10
0.2648899034584902
 20
-1.489157361304289
 30
0
 11
0.3135873295325
 21
-1.489157361304289
 31
0
  0
LINE
  8
0
 10
0.3130637012945517
 20
-1.426014508720009
 30
0
 11
0.2648899034584902
 21
-1.489157361304289
 31
0
  0
LINE
  8
0
 10
0.2647851778115328
 20
-1.426014508720009
 30
0
 11
0.3130637012945517
 21
-1.426014508720009
 31
0
  0
LINE
  8
0
 10
0.3897477555365003
 20
-1.432758357859309
 30
0
 11
0.3940495990895324
 21
-1.439614421020589
 31
0
  0
LINE
  8
0
 10
0.3836982880415308
 20
-1.428187649084839
 30
0
 11
0.3897477555365003
 21
-1.432758357859309
 31
0
  0
LINE
  8
0
 10
0.3741535726595212
 20
-1.426014508720009
 30
0
 11
0.3836982880415308
 21
-1.428187649084839
 31
0
  0
LINE
  8
0
 10
0.3664909138324911
 20
-1.426014508720009
 30
0
 11
0.3741535726595212
 21
-1.426014508720009
 31
0
  0
LINE
  8
0
 10
0.3573494962835503
 20
-1.428187649084839
 30
0
 11
0.3664909138324911
 21
-1.426014508720009
 31
0
  0
LINE
  8
0
 10
0.3522410570645407
 20
-1.432489492637189
 30
0
 11
0.3573494962835503
 21
-1.428187649084839
 31
0
  0
LINE
  8
0
 10
0.3478047809015407
 20
-1.436791336189619
 30
0
 11
0.3522410570645407
 21
-1.432489492637189
 31
0
  0
LINE
  8
0
 10
0.3453849939035026
 20
-1.441362044963789
 30
0
 11
0.3478047809015407
 21
-1.436791336189619
 31
0
  0
LINE
  8
0
 10
0.3451161286804818
 20
-1.44633605157135
 30
0
 11
0.3453849939035026
 21
-1.441362044963789
 31
0
  0
LINE
  8
0
 10
0.3472670504585731
 20
-1.45104119295674
 30
0
 11
0.3451161286804818
 21
-1.44633605157135
 31
0
  0
LINE
  8
0
 10
0.3513000287884898
 20
-1.452923249510779
 30
0
 11
0.3472670504585731
 21
-1.45104119295674
 31
0
  0
LINE
  8
0
 10
0.3874624011485321
 20
-1.46260239750341
 30
0
 11
0.3513000287884898
 21
-1.452923249510779
 31
0
  0
LINE
  8
0
 10
0.3916298120915708
 20
-1.4640811562245
 30
0
 11
0.3874624011485321
 21
-1.46260239750341
 31
0
  0
LINE
  8
0
 10
0.3945873295325
 20
-1.46918959544292
 30
0
 11
0.3916298120915708
 21
-1.4640811562245
 31
0
  0
LINE
  8
0
 10
0.3939151664764904
 20
-1.47349143899529
 30
0
 11
0.3945873295325
 21
-1.46918959544292
 31
0
  0
LINE
  8
0
 10
0.3923019751445208
 20
-1.47792771515865
 30
0
 11
0.3939151664764904
 21
-1.47349143899529
 31
0
  0
LINE
  8
0
 10
0.3888067272605404
 20
-1.482095126100099
 30
0
 11
0.3923019751445208
 21
-1.47792771515865
 31
0
  0
LINE
  8
0
 10
0.3824883945425499
 20
-1.48706913270734
 30
0
 11
0.3888067272605404
 21
-1.482095126100099
 31
0
  0
LINE
  8
0
 10
0.3746913031025833
 20
-1.489157361304289
 30
0
 11
0.3824883945425499
 21
-1.48706913270734
 31
0
  0
LINE
  8
0
 10
0.36541545294358
 20
-1.489157361304289
 30
0
 11
0.3746913031025833
 21
-1.489157361304289
 31
0
  0
LINE
  8
0
 10
0.3558707375615631
 20
-1.487203565318519
 30
0
 11
0.36541545294358
 21
-1.489157361304289
 31
0
  0
LINE
  8
0
 10
0.3498212700665028
 20
-1.48276728915521
 30
0
 11
0.3558707375615631
 21
-1.487203565318519
 31
0
  0
LINE
  8
0
 10
0.3453849939035026
 20
-1.47577679338244
 30
0
 11
0.3498212700665028
 21
-1.48276728915521
 31
0
  0
LINE
  8
0
 10
0.4225850967094702
 20
-1.489157361304289
 30
0
 11
0.4225850967094702
 21
-1.398881339884299
 31
0
  0
LINE
  8
0
 10
0.4150568704924226
 20
-1.426014508720009
 30
0
 11
0.4350873295325
 21
-1.426014508720009
 31
0
  0
LINE
  8
0
 10
0.48524371085448
 20
-1.489157361304289
 30
0
 11
0.5160873295325
 21
-1.489157361304289
 31
0
  0
LINE
  8
0
 10
0.4780114140635304
 20
-1.48664955904992
 30
0
 11
0.48524371085448
 21
-1.489157361304289
 31
0
  0
LINE
  8
0
 10
0.4729062633845206
 20
-1.4849478421573
 30
0
 11
0.4780114140635304
 21
-1.48664955904992
 31
0
  0
LINE
  8
0
 10
0.4697155442135008
 20
-1.480693549926429
 30
0
 11
0.4729062633845206
 21
-1.4849478421573
 31
0
  0
LINE
  8
0
 10
0.4671629688725115
 20
-1.47154682162949
 30
0
 11
0.4697155442135008
 21
-1.480693549926429
 31
0
  0
LINE
  8
0
 10
0.4671629688725115
 20
-1.426014508720009
 30
0
 11
0.4671629688725115
 21
-1.47154682162949
 31
0
  0
LINE
  8
0
 10
0.5160873295325
 20
-1.426014508720009
 30
0
 11
0.5160873295325
 21
-1.489157361304289
 31
0
  0
LINE
  8
0
 10
0.5321146062394728
 20
-1.430532422989889
 30
0
 11
0.5561579835095217
 21
-1.430532422989889
 31
0
  0
LINE
  8
0
 10
0.5402721806705414
 20
-1.41450350480924
 30
0
 11
0.5404152960125505
 21
-1.489157361304289
 31
0
  0
LINE
  8
0
 10
0.5425620261244912
 20
-1.40605969969635
 30
0
 11
0.5402721806705414
 21
-1.41450350480924
 31
0
  0
LINE
  8
0
 10
0.5467123710125599
 20
-1.400907547424189
 30
0
 11
0.5425620261244912
 21
-1.40605969969635
 31
0
  0
LINE
  8
0
 10
0.55172140794354
 20
-1.3991901633334
 30
0
 11
0.5467123710125599
 21
-1.400907547424189
 31
0
  0
LINE
  8
0
 10
0.5565873295325
 20
-1.39933327867421
 30
0
 11
0.55172140794354
 21
-1.3991901633334
 31
0
  0
LINE
  8
0
 10
0.6375873295324999
 20
-1.45743810707862
 30
0
 11
0.5890712289665424
 21
-1.457581222419371
 31
0
  0
LINE
  8
0
 10
0.6375873295324999
 20
-1.44384214969331
 30
0
 11
0.6375873295324999
 21
-1.45743810707862
 31
0
  0
LINE
  8
0
 10
0.6360130607825815
 20
-1.435398344580399
 30
0
 11
0.6375873295324999
 21
-1.44384214969331
 31
0
  0
LINE
  8
0
 10
0.63200583123662
 20
-1.431104884353419
 30
0
 11
0.6360130607825815
 21
-1.435398344580399
 31
0
  0
LINE
  8
0
 10
0.6271399096475616
 20
-1.42795634685374
 30
0
 11
0.63200583123662
 21
-1.431104884353419
 31
0
  0
LINE
  8
0
 10
0.6196979119205316
 20
-1.426014508720009
 30
0
 11
0.6271399096475616
 21
-1.42795634685374
 31
0
  0
LINE
  8
0
 10
0.6071037619205999
 20
-1.426014508720009
 30
0
 11
0.6196979119205316
 21
-1.426014508720009
 31
0
  0
LINE
  8
0
 10
0.5992324181705917
 20
-1.42795634685374
 30
0
 11
0.6071037619205999
 21
-1.426014508720009
 31
0
  0
LINE
  8
0
 10
0.5953683039665519
 20
-1.430818653671529
 30
0
 11
0.5992324181705917
 21
-1.42795634685374
 31
0
  0
LINE
  8
0
 10
0.5915041897625926
 20
-1.434539652534979
 30
0
 11
0.5953683039665519
 21
-1.430818653671529
 31
0
  0
LINE
  8
0
 10
0.5890712289665424
 20
-1.44398526503412
 30
0
 11
0.5915041897625926
 21
-1.434539652534979
 31
0
  0
LINE
  8
0
 10
0.5890712289665424
 20
-1.470604718441229
 30
0
 11
0.5890712289665424
 21
-1.44398526503412
 31
0
  0
LINE
  8
0
 10
0.5917904204465303
 20
-1.47976410025869
 30
0
 11
0.5890712289665424
 21
-1.470604718441229
 31
0
  0
LINE
  8
0
 10
0.5945096119235532
 20
-1.484057560485449
 30
0
 11
0.5917904204465303
 21
-1.47976410025869
 31
0
  0
LINE
  8
0
 10
0.5993755335125206
 20
-1.48677675196239
 30
0
 11
0.5945096119235532
 21
-1.484057560485449
 31
0
  0
LINE
  8
0
 10
0.6076762232855107
 20
-1.489157361304289
 30
0
 11
0.5993755335125206
 21
-1.48677675196239
 31
0
  0
LINE
  8
0
 10
0.6375873295324999
 20
-1.489157361304289
 30
0
 11
0.6076762232855107
 21
-1.489157361304289
 31
0
  0
LINE
  8
0
 10
0.7181813903555012
 20
-1.437723376801619
 30
0
 11
0.7185873295325002
 21
-1.489157361304289
 31
0
  0
LINE
  8
0
 10
0.7155427857155301
 20
-1.43305507628379
 30
0
 11
0.7181813903555012
 21
-1.437723376801619
 31
0
  0
LINE
  8
0
 10
0.7120923027245298
 20
-1.42919865411671
 30
0
 11
0.7155427857155301
 21
-1.43305507628379
 31
0
  0
LINE
  8
0
 10
0.7055972759164726
 20
-1.426014508720009
 30
0
 11
0.7120923027245298
 21
-1.42919865411671
 31
0
  0
LINE
  8
0
 10
0.6696716588885029
 20
-1.426014508720009
 30
0
 11
0.7055972759164726
 21
-1.426014508720009
 31
0
  0
LINE
  8
0
 10
0.6690627501245326
 20
-1.489157361304289
 30
0
 11
0.6696716588885029
 21
-1.426014508720009
 31
0
  0
LINE
  8
0
 10
-0.3945174137511676
 20
-1.19679183531237
 30
0
 11
-0.4319648258046182
 21
-1.23121105190782
 31
0
  0
LINE
  8
0
 10
-0.4319648258046182
 20
-1.23121105190782
 30
0
 11
-0.4458934363856789
 21
-1.24879306854288
 31
0
  0
LINE
  8
0
 10
-0.4458934363856789
 20
-1.24879306854288
 30
0
 11
-0.4527435727366574
 21
-1.263406692758879
 31
0
  0
LINE
  8
0
 10
-0.4527435727366574
 20
-1.263406692758879
 30
0
 11
-0.4559016286011392
 21
-1.2933189548264
 31
0
  0
LINE
  8
0
 10
-0.4559016286011392
 20
-1.2933189548264
 30
0
 11
-0.4559016286011392
 21
-1.310672633582879
 31
0
  0
LINE
  8
0
 10
-0.4559016286011392
 20
-1.310672633582879
 30
0
 11
-0.4522868969802295
 21
-1.32505791992038
 31
0
  0
LINE
  8
0
 10
-0.4522868969802295
 20
-1.32505791992038
 30
0
 11
-0.4456650985071683
 21
-1.33578980020438
 31
0
  0
LINE
  8
0
 10
-0.4456650985071683
 20
-1.33578980020438
 30
0
 11
-0.4365315833721287
 21
-1.34400996382582
 31
0
  0
LINE
  8
0
 10
-0.4365315833721287
 20
-1.34400996382582
 30
0
 11
-0.4257997030887091
 21
-1.34690470405939
 31
0
  0
LINE
  8
0
 10
-0.4257997030887091
 20
-1.34690470405939
 30
0
 11
-0.4036509288862071
 21
-1.34690470405939
 31
0
  0
LINE
  8
0
 10
-0.4036509288862071
 20
-1.34690470405939
 30
0
 11
-0.393832400115647
 21
-1.34241159867689
 31
0
  0
LINE
  8
0
 10
-0.393832400115647
 20
-1.34241159867689
 30
0
 11
-0.3840138713456799
 21
-1.335104786568889
 31
0
  0
LINE
  8
0
 10
-0.3840138713456799
 20
-1.335104786568889
 30
0
 11
-0.3776204107511185
 21
-1.32528625779888
 31
0
  0
LINE
  8
0
 10
-0.3776204107511185
 20
-1.32528625779888
 30
0
 11
-0.3741953425751199
 21
-1.310444295704379
 31
0
  0
LINE
  8
0
 10
-0.3741953425751199
 20
-1.310444295704379
 30
0
 11
-0.3744236804536267
 21
-1.29354729270433
 31
0
  0
LINE
  8
0
 10
-0.3744236804536267
 20
-1.29354729270433
 30
0
 11
-0.3780770865076993
 21
-1.278933668488329
 31
0
  0
LINE
  8
0
 10
-0.3780770865076993
 20
-1.278933668488329
 30
0
 11
-0.3842422092241795
 21
-1.269115139718389
 31
0
  0
LINE
  8
0
 10
-0.3842422092241795
 20
-1.269115139718389
 30
0
 11
-0.3936040622371474
 21
-1.262036665488389
 31
0
  0
LINE
  8
0
 10
-0.3936040622371474
 20
-1.262036665488389
 30
0
 11
-0.4052492940347402
 21
-1.25792658367788
 31
0
  0
LINE
  8
0
 10
-0.4052492940347402
 20
-1.25792658367788
 30
0
 11
-0.4260280409666375
 21
-1.257469907920909
 31
0
  0
LINE
  8
0
 10
-0.4260280409666375
 20
-1.257469907920909
 30
0
 11
-0.4356182318586871
 21
-1.261579989731879
 31
0
  0
LINE
  8
0
 10
-0.4356182318586871
 20
-1.261579989731879
 30
0
 11
-0.4454367606286578
 21
-1.268658463961379
 31
0
  0
LINE
  8
0
 10
-0.4454367606286578
 20
-1.268658463961379
 30
0
 11
-0.4520585591017188
 21
-1.280075357880389
 31
0
  0
LINE
  8
0
 10
-0.4520585591017188
 20
-1.280075357880389
 30
0
 11
-0.4559016286011392
 21
-1.2933189548264
 31
0
  0
LINE
  8
0
 10
-0.5910700776777267
 20
-1.19679183531237
 30
0
 11
-0.5910700776777267
 21
-1.34690470405939
 31
0
  0
LINE
  8
0
 10
-0.5910700776777267
 20
-1.34690470405939
 30
0
 11
-0.5091953425751199
 21
-1.34690470405939
 31
0
  0
LINE
  8
0
 10
-0.7253324102961088
 20
-1.220282152729389
 30
0
 11
-0.7175894911481082
 21
-1.20863228787687
 31
0
  0
LINE
  8
0
 10
-0.7175894911481082
 20
-1.20863228787687
 30
0
 11
-0.7092015884541688
 21
-1.201176374370889
 31
0
  0
LINE
  8
0
 10
-0.7092015884541688
 20
-1.201176374370889
 30
0
 11
-0.6949887533336079
 21
-1.19679183531237
 31
0
  0
LINE
  8
0
 10
-0.6949887533336079
 20
-1.19679183531237
 30
0
 11
-0.6747179884897269
 21
-1.19679183531237
 31
0
  0
LINE
  8
0
 10
-0.6747179884897269
 20
-1.19679183531237
 30
0
 11
-0.6609711479631478
 21
-1.20071037977688
 31
0
  0
LINE
  8
0
 10
-0.6609711479631478
 20
-1.20071037977688
 30
0
 11
-0.6511852614866875
 21
-1.20839929057938
 31
0
  0
LINE
  8
0
 10
-0.6511852614866875
 20
-1.20839929057938
 30
0
 11
-0.6441953425751199
 21
-1.2200491554324
 31
0
  0
LINE
  8
0
 10
-0.6441953425751199
 20
-1.2200491554324
 30
0
 11
-0.6441953425751199
 21
-1.234028993255899
 31
0
  0
LINE
  8
0
 10
-0.6441953425751199
 20
-1.234028993255899
 30
0
 11
-0.6514182587836769
 21
-1.250105806752879
 31
0
  0
LINE
  8
0
 10
-0.6514182587836769
 20
-1.250105806752879
 30
0
 11
-0.7253324102961088
 21
-1.34690470405939
 31
0
  0
LINE
  8
0
 10
-0.7253324102961088
 20
-1.34690470405939
 30
0
 11
-0.6446613371690982
 21
-1.34690470405939
 31
0
  0
LINE
  8
0
 10
-0.8204897193811596
 20
-1.242183898652849
 30
0
 11
-0.77919534257512
 21
-1.19679183531237
 31
0
  0
LINE
  8
0
 10
-0.77919534257512
 20
-1.19679183531237
 30
0
 11
-0.77919534257512
 21
-1.34690470405939
 31
0
  0
LINE
  8
0
 10
-0.9278324102961087
 20
-1.220282152729389
 30
0
 11
-0.9200894911481083
 21
-1.20863228787687
 31
0
  0
LINE
  8
0
 10
-0.9200894911481083
 20
-1.20863228787687
 30
0
 11
-0.9117015884541688
 21
-1.201176374370889
 31
0
  0
LINE
  8
0
 10
-0.9117015884541688
 20
-1.201176374370889
 30
0
 11
-0.8974887533336079
 21
-1.19679183531237
 31
0
  0
LINE
  8
0
 10
-0.8974887533336079
 20
-1.19679183531237
 30
0
 11
-0.877217988489727
 21
-1.19679183531237
 31
0
  0
LINE
  8
0
 10
-0.877217988489727
 20
-1.19679183531237
 30
0
 11
-0.8634711479631478
 21
-1.20071037977688
 31
0
  0
LINE
  8
0
 10
-0.8634711479631478
 20
-1.20071037977688
 30
0
 11
-0.8536852614866876
 21
-1.20839929057938
 31
0
  0
LINE
  8
0
 10
-0.8536852614866876
 20
-1.20839929057938
 30
0
 11
-0.84669534257512
 21
-1.2200491554324
 31
0
  0
LINE
  8
0
 10
-0.84669534257512
 20
-1.2200491554324
 30
0
 11
-0.84669534257512
 21
-1.234028993255899
 31
0
  0
LINE
  8
0
 10
-0.84669534257512
 20
-1.234028993255899
 30
0
 11
-0.8539182587836769
 21
-1.250105806752879
 31
0
  0
LINE
  8
0
 10
-0.8539182587836769
 20
-1.250105806752879
 30
0
 11
-0.9278324102961087
 21
-1.34690470405939
 31
0
  0
LINE
  8
0
 10
-0.9278324102961087
 20
-1.34690470405939
 30
0
 11
-0.8471613371690981
 21
-1.34690470405939
 31
0
  0
LINE
  8
0
 10
-1.077499474390068
 20
-1.34690470405939
 30
0
 11
-1.077499474390068
 21
-1.272574538729319
 31
0
  0
LINE
  8
0
 10
-1.077499474390068
 20
-1.19679183531237
 30
0
 11
-1.012813939875639
 21
-1.19679183531237
 31
0
  0
LINE
  8
0
 10
-1.012813939875639
 20
-1.19679183531237
 30
0
 11
-0.9994773981756697
 21
-1.20176385303586
 31
0
  0
LINE
  8
0
 10
-0.9994773981756697
 20
-1.20176385303586
 30
0
 11
-0.9909039070826876
 21
-1.208432123885879
 31
0
  0
LINE
  8
0
 10
-0.9909039070826876
 20
-1.208432123885879
 30
0
 11
-0.9820128792827092
 21
-1.2268492529004
 31
0
  0
LINE
  8
0
 10
-0.9820128792827092
 20
-1.2268492529004
 30
0
 11
-0.98169534257512
 21
-1.24367869837887
 31
0
  0
LINE
  8
0
 10
-0.98169534257512
 20
-1.24367869837887
 30
0
 11
-0.9864583931827001
 21
-1.25352233630035
 31
0
  0
LINE
  8
0
 10
-0.9864583931827001
 20
-1.25352233630035
 30
0
 11
-0.9896337602540771
 21
-1.262730900807879
 31
0
  0
LINE
  8
0
 10
-0.9896337602540771
 20
-1.262730900807879
 30
0
 11
-1.000112471589677
 21
-1.269399171657869
 31
0
  0
LINE
  8
0
 10
-1.000112471589677
 20
-1.269399171657869
 30
0
 11
-1.014719160118697
 21
-1.271621928607899
 31
0
  0
LINE
  8
0
 10
-1.014719160118697
 20
-1.271621928607899
 30
0
 11
-1.023617775507159
 21
-1.271756953594349
 31
0
  0
LINE
  8
0
 10
-1.077499474390068
 20
-1.272574538729319
 30
0
 11
-1.077499474390068
 21
-1.19679183531237
 31
0
  0
LINE
  8
0
 10
-1.023617775507159
 20
-1.271756953594349
 30
0
 11
-0.9826479526965777
 21
-1.34690470405939
 31
0
  0
LINE
  8
0
 10
-1.023617775507159
 20
-1.271756953594349
 30
0
 11
-1.077499474390068
 21
-1.272574538729319
 31
0
  0
LINE
  8
0
 10
-1.211891166662688
 20
-1.32821487251088
 30
0
 11
-1.204833215007679
 21
-1.336227406368389
 31
0
  0
LINE
  8
0
 10
-1.204833215007679
 20
-1.336227406368389
 30
0
 11
-1.1908112807572
 21
-1.343329425014899
 31
0
  0
LINE
  8
0
 10
-1.1908112807572
 20
-1.343329425014899
 30
0
 11
-1.174968316084127
 21
-1.34690470405939
 31
0
  0
LINE
  8
0
 10
-1.174968316084127
 20
-1.34690470405939
 30
0
 11
-1.153298054060589
 21
-1.34690470405939
 31
0
  0
LINE
  8
0
 10
-1.153298054060589
 20
-1.34690470405939
 30
0
 11
-1.136908780261158
 21
-1.34296521893038
 31
0
  0
LINE
  8
0
 10
-1.136908780261158
 20
-1.34296521893038
 30
0
 11
-1.126711009897128
 21
-1.335681097241879
 31
0
  0
LINE
  8
0
 10
-1.126711009897128
 20
-1.335681097241879
 30
0
 11
-1.120519506461718
 21
-1.323844399497879
 31
0
  0
LINE
  8
0
 10
-1.120519506461718
 20
-1.323844399497879
 30
0
 11
-1.11669534257512
 21
-1.314010835218409
 31
0
  0
LINE
  8
0
 10
-1.11669534257512
 20
-1.314010835218409
 30
0
 11
-1.117605857786119
 21
-1.30526988919189
 31
0
  0
LINE
  8
0
 10
-1.117605857786119
 20
-1.30526988919189
 30
0
 11
-1.120883712546209
 21
-1.29434370665889
 31
0
  0
LINE
  8
0
 10
-1.120883712546209
 20
-1.29434370665889
 30
0
 11
-1.127803628150588
 21
-1.283417524126389
 31
0
  0
LINE
  8
0
 10
-1.127803628150588
 20
-1.283417524126389
 30
0
 11
-1.137637192430127
 21
-1.276133402437379
 31
0
  0
LINE
  8
0
 10
-1.137637192430127
 20
-1.276133402437379
 30
0
 11
-1.195910165939138
 21
-1.24863584306285
 31
0
  0
LINE
  8
0
 10
-1.195910165939138
 20
-1.24863584306285
 30
0
 11
-1.204833215007679
 21
-1.242262236585349
 31
0
  0
LINE
  8
0
 10
-1.204833215007679
 20
-1.242262236585349
 30
0
 11
-1.208475275851677
 21
-1.2318823631794
 31
0
  0
LINE
  8
0
 10
-1.208475275851677
 20
-1.2318823631794
 30
0
 11
-1.207928966725169
 21
-1.22350562323737
 31
0
  0
LINE
  8
0
 10
-1.207928966725169
 20
-1.22350562323737
 30
0
 11
-1.205197421092169
 21
-1.21221523461988
 31
0
  0
LINE
  8
0
 10
-1.205197421092169
 20
-1.21221523461988
 30
0
 11
-1.194271238559169
 21
-1.20456690684682
 31
0
  0
LINE
  8
0
 10
-1.194271238559169
 20
-1.20456690684682
 30
0
 11
-1.171144152197678
 21
-1.19679183531237
 31
0
  0
LINE
  8
0
 10
-1.171144152197678
 20
-1.19679183531237
 30
0
 11
-1.157486424031678
 21
-1.19679183531237
 31
0
  0
LINE
  8
0
 10
-1.157486424031678
 20
-1.19679183531237
 30
0
 11
-1.13964032589415
 21
-1.20128905208688
 31
0
  0
LINE
  8
0
 10
-1.13964032589415
 20
-1.20128905208688
 30
0
 11
-1.13053517378373
 21
-1.204384803804909
 31
0
  0
LINE
  8
0
 10
-1.13053517378373
 20
-1.204384803804909
 30
0
 11
-1.121065815588667
 21
-1.21185102853532
 31
0
  0
LINE
  8
0
 10
-1.345780780971119
 20
-1.19679183531237
 30
0
 11
-1.25169534257512
 21
-1.19679183531237
 31
0
  0
LINE
  8
0
 10
-1.25169534257512
 20
-1.19679183531237
 30
0
 11
-1.345780780971119
 21
-1.34690470405939
 31
0
  0
LINE
  8
0
 10
-1.345780780971119
 20
-1.34690470405939
 30
0
 11
-1.25169534257512
 21
-1.34690470405939
 31
0
  0
LINE
  8
0
 10
-0.4088065063448703
 20
-0.6906052509431904
 30
0
 11
-0.5084360069595677
 21
-0.7260440032890892
 31
0
  0
LINE
  8
0
 10
-0.4088065063448703
 20
-0.6906052509431904
 30
0
 11
-0.4331081324263469
 21
-0.5877289366822788
 31
0
  0
LINE
  8
0
 10
-0.3682554679661298
 20
-0.6761810272181902
 30
0
 11
-0.3459381895275183
 21
-0.63520262615691
 31
0
  0
LINE
  8
0
 10
-0.3682554679661298
 20
-0.6761810272181902
 30
0
 11
-0.4088065063448703
 21
-0.6906052509431904
 31
0
  0
LINE
  8
0
 10
-0.4212660640607573
 20
-0.7735176927637002
 30
0
 11
-0.3682554679661298
 21
-0.6761810272181902
 31
0
  0
LINE
  8
0
 10
-0.5829592989227095
 20
-0.5620341460506697
 30
0
 11
-0.5207066946923078
 21
-0.50201608077112
 31
0
  0
LINE
  8
0
 10
-0.5829592989227095
 20
-0.5620341460506697
 30
0
 11
-0.6420791301708195
 21
-0.5003876712097792
 31
0
  0
LINE
  8
0
 10
-0.6340903272423384
 20
-0.6113298411213001
 30
0
 11
-0.7029392060605898
 21
-0.5399176423972003
 31
0
  0
LINE
  8
0
 10
-0.5207066946923078
 20
-0.50201608077112
 30
0
 11
-0.5895555735105991
 21
-0.4306038820469694
 31
0
  0
LINE
  8
0
 10
-0.6340903272423384
 20
-0.6113298411213001
 30
0
 11
-0.5829592989227095
 21
-0.5620341460506697
 31
0
  0
LINE
  8
0
 10
-0.6472281841672376
 20
-0.3228796755291096
 30
0
 11
-0.788161810252077
 21
-0.3931865697196899
 31
0
  0
LINE
  8
0
 10
-0.832461881791289
 20
-0.3043848982802901
 30
0
 11
-0.6915282557064493
 21
-0.2340780040896898
 31
0
  0
LINE
  8
0
 10
-0.6915282557064493
 20
-0.2340780040896898
 30
0
 11
-0.788161810252077
 21
-0.3931865697196899
 31
0
  0
LINE
  8
0
 10
-0.7142452310120498
 20
-0.1140585692822497
 30
0
 11
-0.8697717868431792
 21
-0.1388947679339999
 31
0
  0
LINE
  8
0
 10
-0.8854209687577095
 20
-0.04089815424647895
 30
0
 11
-0.7298944129266203
 21
-0.01606195559471053
 31
0
  0
LINE
  8
0
 10
-0.7298944129266203
 20
-0.01606195559471053
 30
0
 11
-0.8697717868431792
 21
-0.1388947679339999
 31
0
  0
LINE
  8
0
 10
-0.7232297857430569
 20
0.1209709875389999
 30
0
 11
-0.7087251435183572
 21
0.1432602837535796
 31
0
  0
LINE
  8
0
 10
-0.7325118757313104
 20
0.115258940797481
 30
0
 11
-0.7232297857430569
 21
0.1209709875389999
 31
0
  0
LINE
  8
0
 10
-0.7601755174882675
 20
0.1118053946795408
 30
0
 11
-0.7325118757313104
 21
0.115258940797481
 31
0
  0
LINE
  8
0
 10
-0.8238431449086493
 20
0.1211503441028508
 30
0
 11
-0.7601755174882675
 21
0.1118053946795408
 31
0
  0
LINE
  8
0
 10
-0.8491897403356379
 20
0.1319281630574806
 30
0
 11
-0.8238431449086493
 21
0.1211503441028508
 31
0
  0
LINE
  8
0
 10
-0.8625854712884393
 20
0.1526073974674709
 30
0
 11
-0.8491897403356379
 21
0.1319281630574806
 31
0
  0
LINE
  8
0
 10
-0.8644871038995079
 20
0.166578987674171
 30
0
 11
-0.8625854712884393
 21
0.1526073974674709
 31
0
  0
LINE
  8
0
 10
-0.7852916066124271
 20
0.2158864123389903
 30
0
 11
-0.7903739475268486
 21
0.1812601588295311
 31
0
  0
LINE
  8
0
 10
-0.6999048228346183
 20
0.2033535882311899
 30
0
 11
-0.7852916066124271
 21
0.2158864123389903
 31
0
  0
LINE
  8
0
 10
-0.7087251435183572
 20
0.1432602837535796
 30
0
 11
-0.6999048228346183
 21
0.2033535882311899
 31
0
  0
LINE
  8
0
 10
-0.8556012046233701
 20
0.2271190825192007
 30
0
 11
-0.8644871038995079
 21
0.166578987674171
 31
0
  0
LINE
  8
0
 10
-0.6438338732637567
 20
0.3396043895047205
 30
0
 11
-0.6349267350447481
 21
0.3466288598481406
 31
0
  0
LINE
  8
0
 10
-0.6592867711554172
 20
0.3314601327092205
 30
0
 11
-0.6438338732637567
 21
0.3396043895047205
 31
0
  0
LINE
  8
0
 10
-0.6777756879776972
 20
0.3305073979157096
 30
0
 11
-0.6592867711554172
 21
0.3314601327092205
 31
0
  0
LINE
  8
0
 10
-0.6939749560339188
 20
0.3347157488406101
 30
0
 11
-0.6777756879776972
 21
0.3305073979157096
 31
0
  0
LINE
  8
0
 10
-0.7508129611132099
 20
0.3640603126292008
 30
0
 11
-0.6939749560339188
 21
0.3347157488406101
 31
0
  0
LINE
  8
0
 10
-0.7627366643203787
 20
0.3743714073289702
 30
0
 11
-0.7508129611132099
 21
0.3640603126292008
 31
0
  0
LINE
  8
0
 10
-0.7673767521135195
 20
0.3842657758705409
 30
0
 11
-0.7627366643203787
 21
0.3743714073289702
 31
0
  0
LINE
  8
0
 10
-0.7717304498930898
 20
0.3932624093206705
 30
0
 11
-0.7673767521135195
 21
0.3842657758705409
 31
0
  0
LINE
  8
0
 10
-0.7754149550161492
 20
0.4079125608116702
 30
0
 11
-0.7717304498930898
 21
0.3932624093206705
 31
0
  0
LINE
  8
0
 10
-0.7741089068183792
 20
0.4203611067185811
 30
0
 11
-0.7754149550161492
 21
0.4079125608116702
 31
0
  0
LINE
  8
0
 10
-0.7644802218251171
 20
0.4390110771355103
 30
0
 11
-0.7741089068183792
 21
0.4203611067185811
 31
0
  0
LINE
  8
0
 10
-0.7549541773983294
 20
0.4460909542115296
 30
0
 11
-0.7644802218251171
 21
0.4390110771355103
 31
0
  0
LINE
  8
0
 10
-0.7430922198754597
 20
0.4530896509531613
 30
0
 11
-0.7549541773983294
 21
0.4460909542115296
 31
0
  0
LINE
  8
0
 10
-0.72145158896664
 20
0.4557896496164612
 30
0
 11
-0.7430922198754597
 21
0.4530896509531613
 31
0
  0
LINE
  8
0
 10
-0.7049495436511497
 20
0.4528939778166005
 30
0
 11
-0.72145158896664
 21
0.4557896496164612
 31
0
  0
LINE
  8
0
 10
-0.6475194760187587
 20
0.4232437414884807
 30
0
 11
-0.7049495436511497
 21
0.4528939778166005
 31
0
  0
LINE
  8
0
 10
-0.635736072538908
 20
0.4126608977632295
 30
0
 11
-0.6475194760187587
 21
0.4232437414884807
 31
0
  0
LINE
  8
0
 10
-0.63005505464624
 20
0.4026040516885005
 30
0
 11
-0.635736072538908
 21
0.4126608977632295
 31
0
  0
LINE
  8
0
 10
-0.6245365142867195
 20
0.3915062755141807
 30
0
 11
-0.63005505464624
 21
0.4026040516885005
 31
0
  0
LINE
  8
0
 10
-0.62319133558674
 20
0.3803135106487698
 30
0
 11
-0.6245365142867195
 21
0.3915062755141807
 31
0
  0
LINE
  8
0
 10
-0.624533868702958
 20
0.3667589866470698
 30
0
 11
-0.62319133558674
 21
0.3803135106487698
 31
0
  0
LINE
  8
0
 10
-0.6349267350447481
 20
0.3466288598481406
 30
0
 11
-0.624533868702958
 21
0.3667589866470698
 31
0
  0
LINE
  8
0
 10
-0.6029186766428576
 20
0.6395052683394497
 30
0
 11
-0.5689505052330169
 21
0.6756183071839496
 31
0
  0
LINE
  8
0
 10
-0.4881966575605402
 20
0.5315969523030308
 30
0
 11
-0.6029186766428576
 21
0.6395052683394497
 31
0
  0
LINE
  8
0
 10
-0.63754835397012
 20
0.6026889538135601
 30
0
 11
-0.6029186766428576
 21
0.6395052683394497
 31
0
  0
LINE
  8
0
 10
-0.4364421806367574
 20
0.76672524171039
 30
0
 11
-0.3948314356177871
 21
0.7936795390017907
 31
0
  0
LINE
  8
0
 10
-0.3508151742379378
 20
0.634538396270611
 30
0
 11
-0.4364421806367574
 21
0.76672524171039
 31
0
  0
LINE
  8
0
 10
-0.4788632652447886
 20
0.7392460286987498
 30
0
 11
-0.4364421806367574
 21
0.76672524171039
 31
0
  0
LINE
  8
0
 10
0.593507672117623
 20
0.6508020904124807
 30
0
 11
0.6301400770148831
 21
0.6173946787355308
 31
0
  0
LINE
  8
0
 10
0.4873807483658202
 20
0.534430176330421
 30
0
 11
0.593507672117623
 21
0.6508020904124807
 31
0
  0
LINE
  8
0
 10
0.5561618772554503
 20
0.6848600876109394
 30
0
 11
0.593507672117623
 21
0.6508020904124807
 31
0
  0
LINE
  8
0
 10
0.7217283635273125
 20
0.35458649183948
 30
0
 11
0.692553255805753
 21
0.4030162375466607
 31
0
  0
LINE
  8
0
 10
0.7217283635273125
 20
0.35458649183948
 30
0
 11
0.6752026442387722
 21
0.2777781661080699
 31
0
  0
LINE
  8
0
 10
0.692553255805753
 20
0.4030162375466607
 30
0
 11
0.7612747916239714
 21
0.4430072340104307
 31
0
  0
LINE
  8
0
 10
0.7265466611666708
 20
0.3465882718622397
 30
0
 11
0.7217283635273125
 21
0.35458649183948
 31
0
  0
LINE
  8
0
 10
0.7362703483332916
 20
0.3345155459979997
 30
0
 11
0.7265466611666708
 21
0.3465882718622397
 31
0
  0
LINE
  8
0
 10
0.7478469731101103
 20
0.3285320917274003
 30
0
 11
0.7362703483332916
 21
0.3345155459979997
 31
0
  0
LINE
  8
0
 10
0.7578731763821307
 20
0.3305120101251596
 30
0
 11
0.7478469731101103
 21
0.3285320917274003
 31
0
  0
LINE
  8
0
 10
0.7693131094660204
 20
0.3313873119207401
 30
0
 11
0.7578731763821307
 21
0.3305120101251596
 31
0
  0
LINE
  8
0
 10
0.7844068799350898
 20
0.3405562630601307
 30
0
 11
0.7693131094660204
 21
0.3313873119207401
 31
0
  0
LINE
  8
0
 10
0.796416115405671
 20
0.3583376876590502
 30
0
 11
0.7844068799350898
 21
0.3405562630601307
 31
0
  0
LINE
  8
0
 10
0.7979387763412524
 20
0.3696312181432495
 30
0
 11
0.796416115405671
 21
0.3583376876590502
 31
0
  0
LINE
  8
0
 10
0.7954097441313897
 20
0.3843488716582906
 30
0
 11
0.7979387763412524
 21
0.3696312181432495
 31
0
  0
LINE
  8
0
 10
0.7612747916239714
 20
0.4430072340104307
 30
0
 11
0.7954097441313897
 21
0.3843488716582906
 31
0
  0
LINE
  8
0
 10
0.6251489156490607
 20
0.3637917543224103
 30
0
 11
0.692553255805753
 21
0.4030162375466607
 31
0
  0
LINE
  8
0
 10
0.7897810771193617
 20
0.1788009389000599
 30
0
 11
0.7054425496897129
 21
0.1597072832950398
 31
0
  0
LINE
  8
0
 10
0.7897810771193617
 20
0.1788009389000599
 30
0
 11
0.8084203499330616
 21
0.09544615609735047
 31
0
  0
LINE
  8
0
 10
0.8590523258928223
 20
0.1944834674871599
 30
0
 11
0.8809553441728022
 21
0.09773571282910054
 31
0
  0
LINE
  8
0
 10
0.7054425496897129
 20
0.1597072832950398
 30
0
 11
0.7273455679696927
 21
0.06295952863700041
 31
0
  0
LINE
  8
0
 10
0.8590523258928223
 20
0.1944834674871599
 30
0
 11
0.7897810771193617
 21
0.1788009389000599
 31
0
  0
LINE
  8
0
 10
0.7979369728812707
 20
-0.1470334591625597
 30
0
 11
0.7929939178493806
 21
-0.1339261096061
 31
0
  0
LINE
  8
0
 10
0.801660665757001
 20
-0.1587038166949405
 30
0
 11
0.7979369728812707
 21
-0.1470334591625597
 31
0
  0
LINE
  8
0
 10
0.8120140451404915
 20
-0.16289477889113
 30
0
 11
0.801660665757001
 21
-0.1587038166949405
 31
0
  0
LINE
  8
0
 10
0.82325474240744
 20
-0.1684955293774801
 30
0
 11
0.8120140451404915
 21
-0.16289477889113
 31
0
  0
LINE
  8
0
 10
0.8379463015959808
 20
-0.16869636083357
 30
0
 11
0.82325474240744
 21
-0.1684955293774801
 31
0
  0
LINE
  8
0
 10
0.8577761478016511
 20
-0.1633012476543499
 30
0
 11
0.8379463015959808
 21
-0.16869636083357
 31
0
  0
LINE
  8
0
 10
0.8676934738300224
 20
-0.1524141989222389
 30
0
 11
0.8577761478016511
 21
-0.1633012476543499
 31
0
  0
LINE
  8
0
 10
0.8723749877326228
 20
-0.1387582792664089
 30
0
 11
0.8676934738300224
 21
-0.1524141989222389
 31
0
  0
LINE
  8
0
 10
0.8778508677556129
 20
-0.07192059321471972
 30
0
 11
0.8723749877326228
 21
-0.1387582792664089
 31
0
  0
LINE
  8
0
 10
0.7986058165398209
 20
-0.06542820219233909
 30
0
 11
0.8778508677556129
 21
-0.07192059321471972
 31
0
  0
LINE
  8
0
 10
0.7986058165398209
 20
-0.06542820219233909
 30
0
 11
0.7929939178493806
 21
-0.1339261096061
 31
0
  0
LINE
  8
0
 10
0.7208796667341922
 20
-0.05906025177205994
 30
0
 11
0.7986058165398209
 21
-0.06542820219233909
 31
0
  0
LINE
  8
0
 10
0.7171899254686723
 20
-0.3794217463596106
 30
0
 11
0.7164024592864697
 21
-0.365435456556479
 31
0
  0
LINE
  8
0
 10
0.7172447583876601
 20
-0.3916716494986504
 30
0
 11
0.7171899254686723
 21
-0.3794217463596106
 31
0
  0
LINE
  8
0
 10
0.7258661463431019
 20
-0.3987729380092296
 30
0
 11
0.7172447583876601
 21
-0.3916716494986504
 31
0
  0
LINE
  8
0
 10
0.7349115400708106
 20
-0.4074851440081694
 30
0
 11
0.7258661463431019
 21
-0.3987729380092296
 31
0
  0
LINE
  8
0
 10
0.7488675571923303
 20
-0.4120799052389102
 30
0
 11
0.7349115400708106
 21
-0.4074851440081694
 31
0
  0
LINE
  8
0
 10
0.7694028043366526
 20
-0.4128759400858689
 30
0
 11
0.7488675571923303
 21
-0.4120799052389102
 31
0
  0
LINE
  8
0
 10
0.7821271677166334
 20
-0.4054616456336191
 30
0
 11
0.7694028043366526
 21
-0.4128759400858689
 31
0
  0
LINE
  8
0
 10
0.7906862520449832
 20
-0.3938365525361605
 30
0
 11
0.7821271677166334
 21
-0.4054616456336191
 31
0
  0
LINE
  8
0
 10
0.8159421291323307
 20
-0.3317124653289993
 30
0
 11
0.7906862520449832
 21
-0.3938365525361605
 31
0
  0
LINE
  8
0
 10
0.7422856822491014
 20
-0.3017682318954794
 30
0
 11
0.8159421291323307
 21
-0.3317124653289993
 31
0
  0
LINE
  8
0
 10
0.7422856822491014
 20
-0.3017682318954794
 30
0
 11
0.7164024592864697
 21
-0.365435456556479
 31
0
  0
LINE
  8
0
 10
0.6700410191848423
 20
-0.2723979439347804
 30
0
 11
0.7422856822491014
 21
-0.3017682318954794
 31
0
  0
LINE
  8
0
 10
0.6242639955049308
 20
-0.5157697058218491
 30
0
 11
0.5576005774596706
 21
-0.46069209160436
 31
0
  0
LINE
  8
0
 10
0.6242639955049308
 20
-0.5157697058218491
 30
0
 11
0.5696872112816127
 21
-0.5814721938337297
 31
0
  0
LINE
  8
0
 10
0.6790178352533514
 20
-0.5610075731712696
 30
0
 11
0.6158363253330208
 21
-0.6374795748799498
 31
0
  0
LINE
  8
0
 10
0.5576005774596706
 20
-0.46069209160436
 30
0
 11
0.4944190675393402
 21
-0.5371640933130893
 31
0
  0
LINE
  8
0
 10
0.6790178352533514
 20
-0.5610075731712696
 30
0
 11
0.6242639955049308
 21
-0.5157697058218491
 31
0
  0
ARC
  8
0
 10
0
 20
0
 30
0
 40
1.107500000000003
 50
53.39529584893246
 51
126.6047041510674
  0
ARC
  8
0
 10
0
 20
0
 30
0
 40
0.640000000000003
 50
106.7024330865592
 51
129.9788435137478
  0
ARC
  8
0
 10
0
 20
0
 30
0
 40
0.6400000000000012
 50
129.9788435137478
 51
153.255253940938
  0
ARC
  8
0
 10
0
 20
0
 30
0
 40
0.6399999999999999
 50
153.255253940938
 51
176.5316643681277
  0
ARC
  8
0
 10
0
 20
0
 30
0
 40
0.6399999999999965
 50
176.5316643681277
 51
199.8080747953179
  0
ARC
  8
0
 10
0
 20
0
 30
0
 40
0.6399999999999995
 50
199.8080747953179
 51
223.0844852225074
  0
ARC
  8
0
 10
0
 20
0
 30
0
 40
0.639999999999997
 50
223.0844852225074
 51
246.3608956496967
  0
ARC
  8
0
 10
0
 20
0
 30
0
 40
0.6400000000000017
 50
246.3608956496967
 51
269.6373060768869
  0
ARC
  8
0
 10
0
 20
0
 30
0
 40
0.6399999999999947
 50
269.6373060768869
 51
292.913716504076
  0
ARC
  8
0
 10
0
 20
0
 30
0
 40
0.6399999999999986
 50
292.913716504076
 51
316.1901269312667
  0
ARC
  8
0
 10
0
 20
0
 30
0
 40
0.6400000000000023
 50
316.1901269312667
 51
339.4665373584568
  0
ARC
  8
0
 10
0
 20
0
 30
0
 40
0.640000000000001
 50
339.4665373584568
 51
2.742947785645618
  0
ARC
  8
0
 10
0
 20
0
 30
0
 40
0.640000000000007
 50
2.742947785645618
 51
26.01935821283543
  0
ARC
  8
0
 10
0
 20
0
 30
0
 40
0.640000000000001
 50
26.01935821283543
 51
49.2957686400254
  0
CIRCLE
  8
0
 10
-0.1839367640823184
 20
0.6129985863107104
 30
0
 40
0.07000000000000001
  0
CIRCLE
  8
0
  6
DASHED
 10
0
 20
0
 30
0
 40
1.1375
  0
INSERT
  8
0
  2
*D0
 10
0
 20
0
 30
0
 43
1
  0
INSERT
  8
0
  2
*D1
 10
0
 20
0
 30
0
 43
1
  0
ENDSEC
  0
EOF
