  0
SECTION
  2
HEADER
  9
$ACADVER
  1
AC1009
  9
$INSBASE
 10
0
 20
0
  9
$EXTMIN
 10
-1.3748280405709
 20
-1.637449864622589
  9
$EXTMAX
 10
1.40650408980287
 20
1.219137327641811
  9
$LIMMIN
 10
-1.3748280405709
 20
-1.637449864622589
  9
$LIMMAX
 10
1.40650408980287
 20
1.219137327641811
  9
$VIEWCTR
 10
10
 20
10
  9
$VIEWSIZE
 40
10
  9
$SNAPMODE
 70
0
  9
$SNAPUNIT
 10
1
 20
1
  9
$SNAPBASE
 10
0
 20
0
  9
$SNAPANG
 50
0
  9
$SNAPSTYLE
 70
0
  9
$SNAPISOPAIR
 70
0
  9
$GRIDMODE
 70
0
  9
$GRIDUNIT
 10
0
 20
0
  9
$ORTHOMODE
 70
0
  9
$REGENMODE
 70
1
  9
$FILLMODE
 70
1
  9
$QTEXTMODE
 70
0
  9
$DRAGMODE
 70
2
  9
$LTSCALE
 40
1
  9
$OSMODE
 70
0
  9
$ATTMODE
 70
1
  9
$TEXTSIZE
 40
3.5
  9
$TRACEWID
 40
0.5
  9
$TEXTSTYLE
  7
STANDARD
  9
$CLAYER
  8
0
  9
$CELTYPE
  6
BYLAYER
  9
$CECOLOR
 62
256
  9
$DIMSCALE
 40
1
  9
$DIMASZ
 40
0.18
  9
$DIMEXO
 40
0.0625
  9
$DIMDLI
 40
0.38
  9
$DIMRND
 40
0
  9
$DIMDLE
 40
0
  9
$DIMEXE
 40
0.18
  9
$DIMTP
 40
0
  9
$DIMTM
 40
0
  9
$DIMTXT
 40
0.18
  9
$DIMCEN
 40
0.09
  9
$DIMTSZ
 40
0
  9
$DIMTOL
 70
0
  9
$DIMLIM
 70
0
  9
$DIMTIH
 70
1
  9
$DIMTOH
 70
1
  9
$DIMSE1
 70
0
  9
$DIMSE2
 70
0
  9
$DIMTAD
 70
0
  9
$DIMZIN
 70
0
  9
$DIMBLK
  1

  9
$DIMASO
 70
1
  9
$DIMSHO
 70
1
  9
$DIMPOST
  1

  9
$DIMAPOST
  1

  9
$DIMALT
 70
0
  9
$DIMALTD
 70
2
  9
$DIMALTF
 40
25.4
  9
$DIMLFAC
 40
1
  9
$DIMTOFL
 70
0
  9
$DIMTVP
 40
0
  9
$DIMTIX
 70
0
  9
$DIMSOXD
 70
0
  9
$DIMSAH
 70
0
  9
$DIMBLK1
  1

  9
$DIMBLK2
  1

  9
$DIMSTYLE
  2
*UNNAMED
  9
$DIMCLRD
 70
0
  9
$DIMCLRE
 70
0
  9
$DIMCLRT
 70
0
  9
$DIMTFAC
 40
1
  9
$DIMGAP
 40
0.09
  9
$LUNITS
 70
2
  9
$LUPREC
 70
4
  9
$AXISMODE
 70
0
  9
$AXISUNIT
 10
0
 20
0
  9
$SKETCHINC
 40
0.1
  9
$FILLETRAD
 40
2
  9
$AUNITS
 70
0
  9
$AUPREC
 70
0
  9
$MENU
  1
ACAD
  9
$ELEVATION
 40
0
  9
$THICKNESS
 40
0
  9
$VIEWDIR
 10
0
 20
0
 30
1
  9
$LIMCHECK
 70
0
  9
$BLIPMODE
 70
1
  9
$CHAMFERA
 40
0
  9
$CHAMFERB
 40
0
  9
$FASTZOOM
 70
1
  9
$SKPOLY
 70
0
  9
$ANGBASE
 50
0
  9
$ANGDIR
 70
0
  9
$PDMODE
 70
0
  9
$PDSIZE
 40
0
  9
$PLINEWID
 40
0
  9
$COORDS
 70
2
  0
ENDSEC
  0
SECTION
  2
TABLES
  0
TABLE
  2
LTYPE
 70
9
  0
LTYPE
  2
CONTINUOUS
 70
64
  3
Solid line
 72
65
 73
0
 40
0
  0
LTYPE
  2
BORDER
 70
64
  3
__ __ . __ __ .
 72
65
 73
6
 40
0.1315533575384921
 49
0.03758667358242632
 49
-0.01879333679121316
 49
0.03758667358242632
 49
-0.01879333679121316
 49
0
 49
-0.01879333679121316
  0
LTYPE
  2
CENTER
 70
64
  3
____ _ ____ _
 72
65
 73
4
 40
0.1503466943297053
 49
0.09396668395606579
 49
-0.01879333679121316
 49
0.01879333679121316
 49
-0.01879333679121316
  0
LTYPE
  2
DASHDOT
 70
64
  3
__ . __ . __ .
 72
65
 73
4
 40
0.07517334716485263
 49
0.03758667358242632
 49
-0.01879333679121316
 49
0
 49
-0.01879333679121316
  0
LTYPE
  2
DASHED
 70
64
  3
__ __ __ __ __
 72
65
 73
2
 40
0.05638001037363947
 49
0.03758667358242632
 49
-0.01879333679121316
  0
LTYPE
  2
DIVIDE
 70
64
  3
__ . . __ . . 
 72
65
 73
6
 40
0.09396668395606579
 49
0.03758667358242632
 49
-0.01879333679121316
 49
0
 49
-0.01879333679121316
 49
0
 49
-0.01879333679121316
  0
LTYPE
  2
DOT
 70
64
  3
..............
 72
65
 73
4
 40
0.03758667358242632
 49
0
 49
-0.01879333679121316
 49
0
 49
-0.01879333679121316
  0
LTYPE
  2
HIDDEN
 70
64
  3
_ _ _ _ _ _ _
 72
65
 73
2
 40
0.02819000518681974
 49
0.01879333679121316
 49
-0.009396668395606579
  0
LTYPE
  2
PHANTOM
 70
64
  3
_____ _ _ _____ _ _ 
 72
65
 73
6
 40
0.1879333679121316
 49
0.09396668395606579
 49
-0.01879333679121316
 49
0.01879333679121316
 49
-0.01879333679121316
 49
0.01879333679121316
 49
-0.01879333679121316
  0
ENDTAB
  0
TABLE
  2
LAYER
 70
2
  0
LAYER
  2
0
 70
0
 62
7
  6
CONTINUOUS
  0
ENDTAB
  0
TABLE
  2
STYLE
 70
4
  0
STYLE
  2
STANDARD
 70
0
 40
0
 41
1
 50
0
 71
0
 42
3.5
  3
txt
  4

  0
STYLE
  2
SIMPLEX
 70
0
 40
0
 41
1
 50
0
 71
0
 42
3.5
  3
simplex
  4

  0
STYLE
  2
COMPLEX
 70
0
 40
0
 41
1
 50
0
 71
0
 42
3.5
  3
complex
  4

  0
STYLE
  2
ITALIC
 70
0
 40
0
 41
1
 50
0
 71
0
 42
3.5
  3
italic
  4

  0
ENDTAB
  0
TABLE
  2
VIEW
 70
0
  0
ENDTAB
  0
ENDSEC
  0
SECTION
  2
BLOCKS
  0
BLOCK
  8
0
  2
*D0
 70
1
 10
0
 20
0
 30
0
  0
LINE
  8
0
 10
1.37650408980287
 20
-1.1375
 30
0
 11
1.37650408980287
 21
1.1375
 31
0
  0
LINE
  8
0
 10
0.04999999999999982
 20
-1.1375
 30
0
 11
1.40650408980287
 21
-1.1375
 31
0
  0
LINE
  8
0
 10
0.04999999999999982
 20
1.1375
 30
0
 11
1.40650408980287
 21
1.1375
 31
0
  0
LINE
  8
0
 10
1.394181759332534
 20
1.119822330470336
 30
0
 11
1.358826420273206
 21
1.155177669529663
 31
0
  0
LINE
  8
0
 10
1.358826420273206
 20
-1.119822330470337
 30
0
 11
1.394181759332534
 21
-1.155177669529664
 31
0
  0
TEXT
  8
0
 62
7
 10
1.36150408980287
 20
-0.3269189807088404
 30
0
 40
0.05
  1
Durchmesser 2,28
 50
90
 41
0.9
  0
ENDBLK
  8
0
  0
BLOCK
  8
0
  2
*D1
 70
1
 10
0
 20
0
 30
0
  0
LINE
  8
0
 10
-1.3098280405709
 20
-1.06
 30
0
 11
-1.3098280405709
 21
1.06
 31
0
  0
LINE
  8
0
 10
-0.05000000000000004
 20
-1.06
 30
0
 11
-1.3398280405709
 21
-1.06
 31
0
  0
LINE
  8
0
 10
-0.05000000000000004
 20
1.06
 30
0
 11
-1.3398280405709
 21
1.06
 31
0
  0
LINE
  8
0
 10
-1.292150371041236
 20
1.042322330470336
 30
0
 11
-1.327505710100564
 21
1.077677669529664
 31
0
  0
LINE
  8
0
 10
-1.327505710100564
 20
-1.042322330470336
 30
0
 11
-1.292150371041236
 21
-1.077677669529663
 31
0
  0
TEXT
  8
0
 62
7
 10
-1.3248280405709
 20
-0.3278932145586
 30
0
 40
0.05
  1
Durchmesser 2,12
 50
90
 41
0.9
  0
ENDBLK
  8
0
  0
ENDSEC
  0
SECTION
  2
ENTITIES
  0
POINT
  8
0
  6
DASHED
 10
0
 20
0
 30
0
  0
LINE
  8
0
  6
DASHED
 10
0.4302937176115703
 20
0.5066398871619604
 30
0
 11
-0.08647705368550669
 21
0.06758850533794065
 31
0
  0
LINE
  8
0
  6
DASHED
 10
0.1490607958744222
 20
0.03922731549216041
 30
0
 11
0.03362427755772297
 21
0.1044791597720105
 31
0
  0
LINE
  8
0
  6
DASHED
 10
0.1788283473128831
 20
0.08870135176151962
 30
0
 11
-0.01039918141139788
 21
0.1092627287500909
 31
0
  0
LINE
  8
0
  6
DASHED
 10
0.2369049243402733
 20
0.1852253364162298
 30
0
 11
-0.05272984407229887
 21
0.09626032626193047
 31
0
  0
LINE
  8
0
 10
-0.4083857086190001
 20
0.3027617456131102
 30
0
 11
-0.5821896303000685
 21
0.5078926184196607
 31
0
  0
LINE
  8
0
 10
-0.5821896303000685
 20
0.5078926184196607
 30
0
 11
-0.4173788103390798
 21
0.4851751525788804
 31
0
  0
LINE
  8
0
 10
-0.4173788103390798
 20
0.4851751525788804
 30
0
 11
-0.4083857086190001
 21
0.3027617456131102
 31
0
  0
LINE
  8
0
  6
DASHED
 10
0.3732284959690114
 20
0.9947897967896097
 30
0
 11
-0.1224590155104197
 21
-0.004985170350990302
 31
0
  0
LINE
  8
0
  6
DASHED
 10
0.6223885315895824
 20
0.8259038284220407
 30
0
 11
0.3732284959690114
 21
0.9947897967896097
 31
0
  0
LINE
  8
0
 10
0.7359595417489727
 20
0.7663353071003912
 30
0
 11
0.4302937176115703
 21
0.5066398871619604
 31
0
  0
LINE
  8
0
 10
0.9788898507214617
 20
0.4131354622330509
 30
0
 11
0.2369049243402733
 21
0.1852253364162298
 31
0
  0
LINE
  8
0
 10
1.062474817025941
 20
-0.007315270718709144
 30
0
 11
0.1788283473128831
 21
0.08870135176151962
 31
0
  0
LINE
  8
0
 10
0.9731083387216714
 20
-0.4265752115516898
 30
0
 11
0.1490607958744222
 21
0.03922731549216041
 31
0
  0
LINE
  8
0
 10
0.7253376420342502
 20
-0.7763965192143606
 30
0
 11
0.0721743198544318
 21
0.08268829676256065
 31
0
  0
LINE
  8
0
 10
0.3594952593090711
 20
-0.9998346906035495
 30
0
 11
0.09897570450538115
 21
0.04743729319433988
 31
0
  0
LINE
  8
0
 10
-0.06486636870188887
 20
-1.06051808292524
 30
0
 11
0.1096656568653598
 21
0.00446436694635122
 31
0
  0
LINE
  8
0
 10
-0.4786689396945292
 20
-0.9485685511188494
 30
0
 11
0.1025040484401798
 21
-0.03923527649087009
 31
0
  0
LINE
  8
0
 10
-0.8145529724941881
 20
-0.6822094289885499
 30
0
 11
0.07865665794103188
 21
-0.07654813537566951
 31
0
  0
LINE
  8
0
 10
-1.017842697131728
 20
-0.304799104158159
 30
0
 11
0.04200540385757995
 21
-0.1014003595393297
 31
0
  0
LINE
  8
0
 10
-1.055446268994208
 20
0.1222269334730099
 30
0
 11
-0.001483560788208706
 21
-0.1097464619718103
 31
0
  0
LINE
  8
0
 10
-0.9212425151635981
 20
0.52935666450423
 30
0
 11
-0.0447310289040288
 21
-0.1002278500274697
 31
0
  0
LINE
  8
0
 10
-0.6603920461801681
 20
0.8890661366523709
 30
0
 11
-0.08069710461051
 21
-0.07439397942994946
 31
0
  0
LINE
  8
0
 10
0
 20
1.219137327641811
 30
0
 11
0
 21
1.1375
 31
0
  0
LINE
  8
0
 10
1.240673298322883
 20
0
 30
0
 11
-1.227811664466517
 21
0
 31
0
  0
LINE
  8
0
 10
0
 20
1.06
 30
0
 11
0
 21
-1.06
 31
0
  0
LINE
  8
0
 10
0
 20
1.1375
 30
0
 11
0
 21
1.06
 31
0
  0
LINE
  8
0
 10
0
 20
-1.1375
 30
0
 11
0
 21
-1.22846366761129
 31
0
  0
LINE
  8
0
 10
0
 20
-1.06
 30
0
 11
0
 21
-1.1375
 31
0
  0
LINE
  8
0
 10
0.7245597666975228
 20
0.7566499934820203
 30
0
 11
0.6223885315895824
 21
0.8259038284220407
 31
0
  0
LINE
  8
0
 10
0.9645905934600925
 20
0.4087432631389001
 30
0
 11
0.7359595417489727
 21
0.7663353071003912
 31
0
  0
LINE
  8
0
 10
1.047603734794662
 20
-0.005699385704268934
 30
0
 11
0.9788898507214617
 21
0.4131354622330509
 31
0
  0
LINE
  8
0
 10
0.9600861713945525
 20
-0.4192142789195805
 30
0
 11
1.062474817025941
 21
-0.007315270718709144
 31
0
  0
LINE
  8
0
 10
0.7162841599956009
 20
-0.7644887640067191
 30
0
 11
0.9731083387216714
 21
-0.4265752115516898
 31
0
  0
LINE
  8
0
 10
0.3558842036511014
 20
-0.9853184773182403
 30
0
 11
0.7253376420342502
 21
-0.7763965192143606
 31
0
  0
LINE
  8
0
 10
-0.06244718424221719
 20
-1.04575638527017
 30
0
 11
0.3594952593090711
 21
-0.9998346906035495
 31
0
  0
LINE
  8
0
 10
-0.4706133140481398
 20
-0.935964303162109
 30
0
 11
-0.06486636870188887
 21
-1.06051808292524
 31
0
  0
LINE
  8
0
 10
-0.8021722140049972
 20
-0.6738143714936905
 30
0
 11
-0.4786689396945292
 21
-0.9485685511188494
 31
0
  0
LINE
  8
0
 10
-1.003152166570409
 20
-0.3019797987584789
 30
0
 11
-0.8145529724941881
 21
-0.6822094289885499
 31
0
  0
LINE
  8
0
 10
-1.040837315729157
 20
0.1190115554843997
 30
0
 11
-1.017842697131728
 21
-0.304799104158159
 31
0
  0
LINE
  8
0
 10
-0.9090932092732402
 20
0.5206300077851903
 30
0
 11
-1.055446268994208
 21
0.1222269334730099
 31
0
  0
LINE
  8
0
 10
-0.6293653752895879
 20
0.8374994283817304
 30
0
 11
-0.9212425151635981
 21
0.52935666450423
 31
0
  0
LINE
  8
0
 10
0.09136293755230146
 20
-0.05666723402073877
 30
0
 11
0.6603920461801718
 21
0.8890661366523709
 31
0
  0
LINE
  8
0
 10
-1.077855406970109
 20
-1.637449864622589
 30
0
 11
-1.077855406970109
 21
-1.54738214337436
 31
0
  0
LINE
  8
0
 10
-1.021104123321398
 20
-1.54738214337436
 30
0
 11
-1.021104123321398
 21
-1.637449864622589
 31
0
  0
LINE
  8
0
 10
-1.021104123321398
 20
-1.637449864622589
 30
0
 11
-1.077855406970109
 21
-1.54738214337436
 31
0
  0
LINE
  8
0
 10
-0.9892289643829681
 20
-1.637449864622589
 30
0
 11
-0.9401041233213983
 21
-1.637449864622589
 31
0
  0
LINE
  8
0
 10
-0.9892289643829681
 20
-1.54738214337438
 30
0
 11
-0.9892289643829681
 21
-1.637449864622589
 31
0
  0
LINE
  8
0
 10
-0.9118914807174371
 20
-1.588329524664479
 30
0
 11
-0.9118914807174371
 21
-1.54738214337438
 31
0
  0
LINE
  8
0
 10
-0.9118914807174371
 20
-1.588329524664479
 30
0
 11
-0.8795131572207393
 21
-1.588329524664479
 31
0
  0
LINE
  8
0
 10
-0.8762147274996496
 20
-1.637449864622589
 30
0
 11
-0.9118914807174371
 21
-1.637449864622589
 31
0
  0
LINE
  8
0
 10
-0.8667317420514372
 20
-1.633064477757189
 30
0
 11
-0.8762147274996496
 21
-1.637449864622589
 31
0
  0
LINE
  8
0
 10
-0.8628148567575592
 20
-1.628941440605589
 30
0
 11
-0.8667317420514372
 21
-1.633064477757189
 31
0
  0
LINE
  8
0
 10
-0.8591041233213983
 20
-1.62007691073018
 30
0
 11
-0.8628148567575592
 21
-1.628941440605589
 31
0
  0
LINE
  8
0
 10
-0.8593102751787592
 20
-1.6079139511334
 30
0
 11
-0.8591041233213983
 21
-1.62007691073018
 31
0
  0
LINE
  8
0
 10
-0.8630210086149274
 20
-1.5974002063976
 30
0
 11
-0.8593102751787592
 21
-1.6079139511334
 31
0
  0
LINE
  8
0
 10
-0.8679686531967383
 20
-1.592246409958099
 30
0
 11
-0.8630210086149274
 21
-1.5974002063976
 31
0
  0
LINE
  8
0
 10
-0.8765275096284495
 20
-1.58713526562755
 30
0
 11
-0.8679686531967383
 21
-1.592246409958099
 31
0
  0
LINE
  8
0
 10
-0.8765275096284495
 20
-1.58713526562755
 30
0
 11
-0.8795131572207393
 21
-1.588329524664479
 31
0
  0
LINE
  8
0
 10
-0.8795131572207393
 20
-1.588329524664479
 30
0
 11
-0.8765275096284495
 21
-1.58713526562755
 31
0
  0
LINE
  8
0
 10
-0.8733286014936276
 20
-1.585855702373599
 30
0
 11
-0.8765275096284495
 21
-1.58713526562755
 31
0
  0
LINE
  8
0
 10
-0.867556349481667
 20
-1.581938817079679
 30
0
 11
-0.8733286014936276
 21
-1.585855702373599
 31
0
  0
LINE
  8
0
 10
-0.8628148567575592
 20
-1.572868135346589
 30
0
 11
-0.867556349481667
 21
-1.581938817079679
 31
0
  0
LINE
  8
0
 10
-0.8634333123303478
 20
-1.564415909186249
 30
0
 11
-0.8628148567575592
 21
-1.572868135346589
 31
0
  0
LINE
  8
0
 10
-0.8654948309058782
 20
-1.556375986741099
 30
0
 11
-0.8634333123303478
 21
-1.564415909186249
 31
0
  0
LINE
  8
0
 10
-0.871473234775538
 20
-1.54998527915629
 30
0
 11
-0.8654948309058782
 21
-1.556375986741099
 31
0
  0
LINE
  8
0
 10
-0.8815746757962698
 20
-1.54738214337438
 30
0
 11
-0.871473234775538
 21
-1.54998527915629
 31
0
  0
LINE
  8
0
 10
-0.9118914807174371
 20
-1.54738214337438
 30
0
 11
-0.8815746757962698
 21
-1.54738214337438
 31
0
  0
LINE
  8
0
 10
-0.9118914807174371
 20
-1.637449864622589
 30
0
 11
-0.9118914807174371
 21
-1.588329524664479
 31
0
  0
LINE
  8
0
 10
-0.7281601522954079
 20
-1.637449864622589
 30
0
 11
-0.6971041233213983
 21
-1.637449864622589
 31
0
  0
LINE
  8
0
 10
-0.7354590346804289
 20
-1.635498601303711
 30
0
 11
-0.7281601522954079
 21
-1.637449864622589
 31
0
  0
LINE
  8
0
 10
-0.7397524949074469
 20
-1.633065640508639
 30
0
 11
-0.7354590346804289
 21
-1.635498601303711
 31
0
  0
LINE
  8
0
 10
-0.743759724453419
 20
-1.62877218028164
 30
0
 11
-0.7397524949074469
 21
-1.633065640508639
 31
0
  0
LINE
  8
0
 10
-0.7457633392263998
 20
-1.619612798464139
 30
0
 11
-0.743759724453419
 21
-1.62877218028164
 31
0
  0
LINE
  8
0
 10
-0.7457633392263998
 20
-1.591848422329989
 30
0
 11
-0.7457633392263998
 21
-1.619612798464139
 31
0
  0
LINE
  8
0
 10
-0.743902839795428
 20
-1.58326150187631
 30
0
 11
-0.7457633392263998
 21
-1.591848422329989
 31
0
  0
LINE
  8
0
 10
-0.7398956102493796
 20
-1.578395580285789
 30
0
 11
-0.743902839795428
 21
-1.58326150187631
 31
0
  0
LINE
  8
0
 10
-0.7354590346804289
 20
-1.5762488501723
 30
0
 11
-0.7398956102493796
 21
-1.578395580285789
 31
0
  0
LINE
  8
0
 10
-0.7275876909304096
 20
-1.574307012038309
 30
0
 11
-0.7354590346804289
 21
-1.5762488501723
 31
0
  0
LINE
  8
0
 10
-0.6972472386603586
 20
-1.574307012038309
 30
0
 11
-0.7275876909304096
 21
-1.574307012038309
 31
0
  0
LINE
  8
0
 10
-0.6200691247359974
 20
-1.621756399765409
 30
0
 11
-0.6199533945213589
 21
-1.574307012038309
 31
0
  0
LINE
  8
0
 10
-0.6241727879523896
 20
-1.63078766446704
 30
0
 11
-0.6200691247359974
 21
-1.621756399765409
 31
0
  0
LINE
  8
0
 10
-0.6300947436454373
 20
-1.63515510679129
 30
0
 11
-0.6241727879523896
 21
-1.63078766446704
 31
0
  0
LINE
  8
0
 10
-0.6383114571724182
 20
-1.637449864622589
 30
0
 11
-0.6300947436454373
 21
-1.63515510679129
 31
0
  0
LINE
  8
0
 10
-0.6503774418963986
 20
-1.637449864622589
 30
0
 11
-0.6383114571724182
 21
-1.637449864622589
 31
0
  0
LINE
  8
0
 10
-0.6585941554233797
 20
-1.63508108234511
 30
0
 11
-0.6503774418963986
 21
-1.637449864622589
 31
0
  0
LINE
  8
0
 10
-0.6647381844543888
 20
-1.63049156668252
 30
0
 11
-0.6585941554233797
 21
-1.63508108234511
 31
0
  0
LINE
  8
0
 10
-0.6685874556574091
 20
-1.62168265758804
 30
0
 11
-0.6647381844543888
 21
-1.63049156668252
 31
0
  0
LINE
  8
0
 10
-0.6686614801024299
 20
-1.58992617018049
 30
0
 11
-0.6685874556574091
 21
-1.62168265758804
 31
0
  0
LINE
  8
0
 10
-0.6645161111164272
 20
-1.58111726108601
 30
0
 11
-0.6686614801024299
 21
-1.58992617018049
 31
0
  0
LINE
  8
0
 10
-0.6585941554233797
 20
-1.57652774542342
 30
0
 11
-0.6645161111164272
 21
-1.58111726108601
 31
0
  0
LINE
  8
0
 10
-0.650229393006339
 20
-1.574307012038309
 30
0
 11
-0.6585941554233797
 21
-1.57652774542342
 31
0
  0
LINE
  8
0
 10
-0.6199533945213589
 20
-1.574307012038309
 30
0
 11
-0.650229393006339
 21
-1.574307012038309
 31
0
  0
LINE
  8
0
 10
-0.6201014434143872
 20
-1.63500705789892
 30
0
 11
-0.6200691247359974
 21
-1.621756399765409
 31
0
  0
LINE
  8
0
 10
-0.6180287589213768
 20
-1.637449864622589
 30
0
 11
-0.6201014434143872
 21
-1.63500705789892
 31
0
  0
LINE
  8
0
 10
-0.6161041233213983
 20
-1.637449864622589
 30
0
 11
-0.6180287589213768
 21
-1.637449864622589
 31
0
  0
LINE
  8
0
 10
-0.5906399215519268
 20
-1.63589570073771
 30
0
 11
-0.5906399215519268
 21
-1.636795768070941
 31
0
  0
LINE
  8
0
 10
-0.5895398392548996
 20
-1.63589570073771
 30
0
 11
-0.5906399215519268
 21
-1.63589570073771
 31
0
  0
LINE
  8
0
 10
-0.5895398392548996
 20
-1.636795768070941
 30
0
 11
-0.5895398392548996
 21
-1.63589570073771
 31
0
  0
LINE
  8
0
 10
-0.5906399215519268
 20
-1.636795768070941
 30
0
 11
-0.5895398392548996
 21
-1.636795768070941
 31
0
  0
LINE
  8
0
 10
-0.5912641233213981
 20
-1.635289864622589
 30
0
 11
-0.5912641233213981
 21
-1.637449864622589
 31
0
  0
LINE
  8
0
 10
-0.5891041233213983
 20
-1.635289864622589
 30
0
 11
-0.5912641233213981
 21
-1.635289864622589
 31
0
  0
LINE
  8
0
 10
-0.5891041233213983
 20
-1.637449864622589
 30
0
 11
-0.5891041233213983
 21
-1.635289864622589
 31
0
  0
LINE
  8
0
 10
-0.5912641233213981
 20
-1.637449864622589
 30
0
 11
-0.5891041233213983
 21
-1.637449864622589
 31
0
  0
LINE
  8
0
 10
-0.4560116987235997
 20
-1.58365198421268
 30
0
 11
-0.4479285378292589
 21
-1.583377978758799
 31
0
  0
LINE
  8
0
 10
-0.4620398187126884
 20
-1.550086316091471
 30
0
 11
-0.4562857041778079
 21
-1.54738214337438
 31
0
  0
LINE
  8
0
 10
-0.468341944155989
 20
-1.55419639790238
 30
0
 11
-0.4620398187126884
 21
-1.550086316091471
 31
0
  0
LINE
  8
0
 10
-0.4716300096046581
 20
-1.561046534253459
 30
0
 11
-0.468341944155989
 21
-1.55419639790238
 31
0
  0
LINE
  8
0
 10
-0.4719040150588589
 20
-1.57008871423725
 30
0
 11
-0.4716300096046581
 21
-1.561046534253459
 31
0
  0
LINE
  8
0
 10
-0.4680679387021372
 20
-1.57693885058868
 30
0
 11
-0.4719040150588589
 21
-1.57008871423725
 31
0
  0
LINE
  8
0
 10
-0.4617658132588295
 20
-1.581185935126399
 30
0
 11
-0.4680679387021372
 21
-1.57693885058868
 31
0
  0
LINE
  8
0
 10
-0.4560116987235997
 20
-1.58365198421268
 30
0
 11
-0.4617658132588295
 21
-1.581185935126399
 31
0
  0
LINE
  8
0
 10
-0.4662869032507369
 20
-1.587762066023599
 30
0
 11
-0.4560116987235997
 21
-1.58365198421268
 31
0
  0
LINE
  8
0
 10
-0.4725890286936882
 20
-1.59474920510178
 30
0
 11
-0.4662869032507369
 21
-1.587762066023599
 31
0
  0
LINE
  8
0
 10
-0.4762684623157075
 20
-1.60392838781269
 30
0
 11
-0.4725890286936882
 21
-1.59474920510178
 31
0
  0
LINE
  8
0
 10
-0.4762684623157075
 20
-1.61790266596937
 30
0
 11
-0.4762684623157075
 21
-1.60392838781269
 31
0
  0
LINE
  8
0
 10
-0.4720410177856174
 20
-1.626533837771889
 30
0
 11
-0.4762684623157075
 21
-1.61790266596937
 31
0
  0
LINE
  8
0
 10
-0.4660128977965288
 20
-1.632835963215181
 30
0
 11
-0.4720410177856174
 21
-1.626533837771889
 31
0
  0
LINE
  8
0
 10
-0.4580667396292084
 20
-1.637449864622589
 30
0
 11
-0.4660128977965288
 21
-1.632835963215181
 31
0
  0
LINE
  8
0
 10
-0.4458734969239195
 20
-1.637449864622589
 30
0
 11
-0.4580667396292084
 21
-1.637449864622589
 31
0
  0
LINE
  8
0
 10
-0.4379273387563372
 20
-1.633246971396169
 30
0
 11
-0.4458734969239195
 21
-1.637449864622589
 31
0
  0
LINE
  8
0
 10
-0.4318992187672485
 20
-1.62694484595285
 30
0
 11
-0.4379273387563372
 21
-1.633246971396169
 31
0
  0
LINE
  8
0
 10
-0.4271041233213982
 20
-1.61762866051518
 30
0
 11
-0.4318992187672485
 21
-1.62694484595285
 31
0
  0
LINE
  8
0
 10
-0.4276521342292071
 20
-1.60351737963169
 30
0
 11
-0.4271041233213982
 21
-1.61762866051518
 31
0
  0
LINE
  8
0
 10
-0.4316252133130475
 20
-1.59516021328309
 30
0
 11
-0.4276521342292071
 21
-1.60351737963169
 31
0
  0
LINE
  8
0
 10
-0.4372423251211696
 20
-1.58817307420458
 30
0
 11
-0.4316252133130475
 21
-1.59516021328309
 31
0
  0
LINE
  8
0
 10
-0.4479285378292589
 20
-1.583377978758799
 30
0
 11
-0.4372423251211696
 21
-1.58817307420458
 31
0
  0
LINE
  8
0
 10
-0.4409413987507069
 20
-1.581185935126399
 30
0
 11
-0.4479285378292589
 21
-1.583377978758799
 31
0
  0
LINE
  8
0
 10
-0.4362833060320482
 20
-1.57666484513445
 30
0
 11
-0.4409413987507069
 21
-1.581185935126399
 31
0
  0
LINE
  8
0
 10
-0.4316252133130475
 20
-1.57008871423725
 30
0
 11
-0.4362833060320482
 21
-1.57666484513445
 31
0
  0
LINE
  8
0
 10
-0.431488210586198
 20
-1.56118353698057
 30
0
 11
-0.4316252133130475
 21
-1.57008871423725
 31
0
  0
LINE
  8
0
 10
-0.4355982923967895
 20
-1.55419639790238
 30
0
 11
-0.431488210586198
 21
-1.56118353698057
 31
0
  0
LINE
  8
0
 10
-0.4416264123859692
 20
-1.549949313364379
 30
0
 11
-0.4355982923967895
 21
-1.55419639790238
 31
0
  0
LINE
  8
0
 10
-0.4475175296482085
 20
-1.54738214337438
 30
0
 11
-0.4416264123859692
 21
-1.549949313364379
 31
0
  0
LINE
  8
0
 10
-0.4562857041778079
 20
-1.54738214337438
 30
0
 11
-0.4475175296482085
 21
-1.54738214337438
 31
0
  0
LINE
  8
0
 10
-0.3866041233213982
 20
-1.54738214337438
 30
0
 11
-0.3866041233213982
 21
-1.637449864622589
 31
0
  0
LINE
  8
0
 10
-0.4113807494050197
 20
-1.574617381378659
 30
0
 11
-0.3866041233213982
 21
-1.54738214337438
 31
0
  0
LINE
  8
0
 10
-0.2556601522954079
 20
-1.637449864622589
 30
0
 11
-0.2246041233213982
 21
-1.637449864622589
 31
0
  0
LINE
  8
0
 10
-0.2629590346804289
 20
-1.635498601303711
 30
0
 11
-0.2556601522954079
 21
-1.637449864622589
 31
0
  0
LINE
  8
0
 10
-0.2672524949074468
 20
-1.633065640508639
 30
0
 11
-0.2629590346804289
 21
-1.635498601303711
 31
0
  0
LINE
  8
0
 10
-0.271259724453419
 20
-1.62877218028164
 30
0
 11
-0.2672524949074468
 21
-1.633065640508639
 31
0
  0
LINE
  8
0
 10
-0.2732633392263997
 20
-1.619612798464139
 30
0
 11
-0.271259724453419
 21
-1.62877218028164
 31
0
  0
LINE
  8
0
 10
-0.2732633392263997
 20
-1.591848422329989
 30
0
 11
-0.2732633392263997
 21
-1.619612798464139
 31
0
  0
LINE
  8
0
 10
-0.271402839795428
 20
-1.58326150187631
 30
0
 11
-0.2732633392263997
 21
-1.591848422329989
 31
0
  0
LINE
  8
0
 10
-0.2673956102493794
 20
-1.578395580285789
 30
0
 11
-0.271402839795428
 21
-1.58326150187631
 31
0
  0
LINE
  8
0
 10
-0.2629590346804289
 20
-1.5762488501723
 30
0
 11
-0.2673956102493794
 21
-1.578395580285789
 31
0
  0
LINE
  8
0
 10
-0.2550876909304097
 20
-1.574307012038309
 30
0
 11
-0.2629590346804289
 21
-1.5762488501723
 31
0
  0
LINE
  8
0
 10
-0.2247472386603586
 20
-1.574307012038309
 30
0
 11
-0.2550876909304097
 21
-1.574307012038309
 31
0
  0
LINE
  8
0
 10
-0.1726287743673674
 20
-1.637449864622589
 30
0
 11
-0.1726287743673674
 21
-1.574307012038309
 31
0
  0
LINE
  8
0
 10
-0.1436041233213982
 20
-1.585204001768931
 30
0
 11
-0.1436041233213982
 21
-1.637449864622589
 31
0
  0
LINE
  8
0
 10
-0.1468516367254269
 20
-1.58012976207564
 30
0
 11
-0.1436041233213982
 21
-1.585204001768931
 31
0
  0
LINE
  8
0
 10
-0.1500991501293684
 20
-1.57647630949642
 30
0
 11
-0.1468516367254269
 21
-1.58012976207564
 31
0
  0
LINE
  8
0
 10
-0.1561882377633992
 20
-1.574307012038309
 30
0
 11
-0.1500991501293684
 21
-1.57647630949642
 31
0
  0
LINE
  8
0
 10
-0.2002326383013897
 20
-1.574307012038309
 30
0
 11
-0.1561882377633992
 21
-1.574307012038309
 31
0
  0
LINE
  8
0
 10
-0.2010445166524187
 20
-1.637449864622589
 30
0
 11
-0.2002326383013897
 21
-1.574307012038309
 31
0
  0
LINE
  8
0
 10
0.0006495744085623301
 20
-1.574307012038309
 30
0
 11
-0.03056324153953756
 21
-1.574307012038309
 31
0
  0
LINE
  8
0
 10
0.007662226112523057
 20
-1.576678196195
 30
0
 11
0.0006495744085623301
 21
-1.574307012038309
 31
0
  0
LINE
  8
0
 10
0.01209880168156087
 20
-1.57896804164935
 30
0
 11
0.007662226112523057
 21
-1.576678196195
 31
0
  0
LINE
  8
0
 10
0.01539045452052233
 20
-1.5831183865355
 30
0
 11
0.01209880168156087
 21
-1.57896804164935
 31
0
  0
LINE
  8
0
 10
0.01839587667860178
 20
-1.591991537671109
 30
0
 11
0.01539045452052233
 21
-1.5831183865355
 31
0
  0
LINE
  8
0
 10
0.01839587667860178
 20
-1.61946968312333
 30
0
 11
0.01839587667860178
 21
-1.591991537671109
 31
0
  0
LINE
  8
0
 10
0.01639226190850241
 20
-1.62848594960001
 30
0
 11
0.01839587667860178
 21
-1.61946968312333
 31
0
  0
LINE
  8
0
 10
0.01152634031656271
 20
-1.63277940982699
 30
0
 11
0.01639226190850241
 21
-1.62848594960001
 31
0
  0
LINE
  8
0
 10
0.00823468747752122
 20
-1.63506925528132
 30
0
 11
0.01152634031656271
 21
-1.63277940982699
 31
0
  0
LINE
  8
0
 10
7.711304348049455e-05
 20
-1.637449864622589
 30
0
 11
0.00823468747752122
 21
-1.63506925528132
 31
0
  0
LINE
  8
0
 10
-0.03026333922648701
 20
-1.637449864622589
 30
0
 11
7.711304348049455e-05
 21
-1.637449864622589
 31
0
  0
LINE
  8
0
 10
-0.03069268524946892
 20
-1.547053320629289
 30
0
 11
-0.03026333922648701
 21
-1.637449864622589
 31
0
  0
LINE
  8
0
 10
0.09939587667860178
 20
-1.60573061039692
 30
0
 11
0.05087977611264068
 21
-1.605873725737669
 31
0
  0
LINE
  8
0
 10
0.09939587667860178
 20
-1.59213465301161
 30
0
 11
0.09939587667860178
 21
-1.60573061039692
 31
0
  0
LINE
  8
0
 10
0.09782160792869035
 20
-1.583690847898699
 30
0
 11
0.09939587667860178
 21
-1.59213465301161
 31
0
  0
LINE
  8
0
 10
0.09381437838272177
 20
-1.579397387671719
 30
0
 11
0.09782160792869035
 21
-1.583690847898699
 31
0
  0
LINE
  8
0
 10
0.08894845679367064
 20
-1.57624885017204
 30
0
 11
0.09381437838272177
 21
-1.579397387671719
 31
0
  0
LINE
  8
0
 10
0.08150645906664067
 20
-1.574307012038309
 30
0
 11
0.08894845679367064
 21
-1.57624885017204
 31
0
  0
LINE
  8
0
 10
0.0689123090667017
 20
-1.574307012038309
 30
0
 11
0.08150645906664067
 21
-1.574307012038309
 31
0
  0
LINE
  8
0
 10
0.06104096531668256
 20
-1.57624885017204
 30
0
 11
0.0689123090667017
 21
-1.574307012038309
 31
0
  0
LINE
  8
0
 10
0.05717685111265018
 20
-1.579111156989829
 30
0
 11
0.06104096531668256
 21
-1.57624885017204
 31
0
  0
LINE
  8
0
 10
0.05331273690869056
 20
-1.582832155853279
 30
0
 11
0.05717685111265018
 21
-1.579111156989829
 31
0
  0
LINE
  8
0
 10
0.05087977611264068
 20
-1.59227776835242
 30
0
 11
0.05331273690869056
 21
-1.582832155853279
 31
0
  0
LINE
  8
0
 10
0.05087977611264068
 20
-1.61889722175954
 30
0
 11
0.05087977611264068
 21
-1.59227776835242
 31
0
  0
LINE
  8
0
 10
0.05359896759263211
 20
-1.62805660357699
 30
0
 11
0.05087977611264068
 21
-1.61889722175954
 31
0
  0
LINE
  8
0
 10
0.05631815906965131
 20
-1.632350063803749
 30
0
 11
0.05359896759263211
 21
-1.62805660357699
 31
0
  0
LINE
  8
0
 10
0.06118408065862242
 20
-1.63506925528069
 30
0
 11
0.05631815906965131
 21
-1.632350063803749
 31
0
  0
LINE
  8
0
 10
0.06948477043161257
 20
-1.637449864622589
 30
0
 11
0.06118408065862242
 21
-1.63506925528069
 31
0
  0
LINE
  8
0
 10
0.09939587667860178
 20
-1.637449864622589
 30
0
 11
0.06948477043161257
 21
-1.637449864622589
 31
0
  0
LINE
  8
0
 10
0.1259762024245429
 20
-1.637449864622589
 30
0
 11
0.1259762024245429
 21
-1.574307012038309
 31
0
  0
LINE
  8
0
 10
0.1263958766786018
 20
-1.547243526866949
 30
0
 11
0.1263958766786018
 21
-1.55199983506249
 31
0
  0
LINE
  8
0
 10
0.2800919779534415
 20
-1.551937924469899
 30
0
 11
0.2857735928704715
 21
-1.55641765930815
 31
0
  0
LINE
  8
0
 10
0.2746288866871728
 20
-1.55008047343908
 30
0
 11
0.2800919779534415
 21
-1.551937924469899
 31
0
  0
LINE
  8
0
 10
0.2639212278046725
 20
-1.54738214337438
 30
0
 11
0.2746288866871728
 21
-1.55008047343908
 31
0
  0
LINE
  8
0
 10
0.255726590905073
 20
-1.54738214337438
 30
0
 11
0.2639212278046725
 21
-1.54738214337438
 31
0
  0
LINE
  8
0
 10
0.2418503390881706
 20
-1.552047186295049
 30
0
 11
0.255726590905073
 21
-1.54738214337438
 31
0
  0
LINE
  8
0
 10
0.2352946295683723
 20
-1.55663618295888
 30
0
 11
0.2418503390881706
 21
-1.552047186295049
 31
0
  0
LINE
  8
0
 10
0.233655702188571
 20
-1.56341041612938
 30
0
 11
0.2352946295683723
 21
-1.55663618295888
 31
0
  0
LINE
  8
0
 10
0.2333279167126711
 20
-1.568436460094599
 30
0
 11
0.233655702188571
 21
-1.56341041612938
 31
0
  0
LINE
  8
0
 10
0.2355131532190608
 20
-1.57466438413817
 30
0
 11
0.2333279167126711
 21
-1.568436460094599
 31
0
  0
LINE
  8
0
 10
0.2408669826601908
 20
-1.57848854802467
 30
0
 11
0.2355131532190608
 21
-1.57466438413817
 31
0
  0
LINE
  8
0
 10
0.2758307667656009
 20
-1.59498708364939
 30
0
 11
0.2408669826601908
 21
-1.57848854802467
 31
0
  0
LINE
  8
0
 10
0.2817309053333229
 20
-1.59935755666279
 30
0
 11
0.2758307667656009
 21
-1.59498708364939
 31
0
  0
LINE
  8
0
 10
0.2858828546959521
 20
-1.60591326618229
 30
0
 11
0.2817309053333229
 21
-1.59935755666279
 31
0
  0
LINE
  8
0
 10
0.2878495675520026
 20
-1.61246897570209
 30
0
 11
0.2858828546959521
 21
-1.60591326618229
 31
0
  0
LINE
  8
0
 10
0.2883958766786018
 20
-1.617713543317999
 30
0
 11
0.2878495675520026
 21
-1.61246897570209
 31
0
  0
LINE
  8
0
 10
0.2861013783466406
 20
-1.623613681885679
 30
0
 11
0.2883958766786018
 21
-1.617713543317999
 31
0
  0
LINE
  8
0
 10
0.2823864762854028
 20
-1.630715700532081
 30
0
 11
0.2861013783466406
 21
-1.623613681885679
 31
0
  0
LINE
  8
0
 10
0.2762678140669814
 20
-1.63508617354518
 30
0
 11
0.2823864762854028
 21
-1.630715700532081
 31
0
  0
LINE
  8
0
 10
0.2664342497873222
 20
-1.637449864622589
 30
0
 11
0.2762678140669814
 21
-1.63508617354518
 31
0
  0
LINE
  8
0
 10
0.2534320925731918
 20
-1.637449864622589
 30
0
 11
0.2664342497873222
 21
-1.637449864622589
 31
0
  0
LINE
  8
0
 10
0.2439263137693524
 20
-1.635304697195899
 30
0
 11
0.2534320925731918
 21
-1.637449864622589
 31
0
  0
LINE
  8
0
 10
0.2355131532190608
 20
-1.631043486007989
 30
0
 11
0.2439263137693524
 21
-1.635304697195899
 31
0
  0
LINE
  8
0
 10
0.2312783822260608
 20
-1.62623596569348
 30
0
 11
0.2355131532190608
 21
-1.631043486007989
 31
0
  0
LINE
  8
0
 10
0.316393643855572
 20
-1.637449864622589
 30
0
 11
0.316393643855572
 21
-1.5471738432026
 31
0
  0
LINE
  8
0
 10
0.3088654176385207
 20
-1.574307012038309
 30
0
 11
0.3288958766786018
 21
-1.574307012038309
 31
0
  0
LINE
  8
0
 10
0.4098958766786016
 20
-1.60573061039692
 30
0
 11
0.3613797761126407
 21
-1.605873725737669
 31
0
  0
LINE
  8
0
 10
0.4098958766786016
 20
-1.59213465301161
 30
0
 11
0.4098958766786016
 21
-1.60573061039692
 31
0
  0
LINE
  8
0
 10
0.4083216079286903
 20
-1.583690847898699
 30
0
 11
0.4098958766786016
 21
-1.59213465301161
 31
0
  0
LINE
  8
0
 10
0.4043143783827218
 20
-1.579397387671719
 30
0
 11
0.4083216079286903
 21
-1.583690847898699
 31
0
  0
LINE
  8
0
 10
0.3994484567936706
 20
-1.57624885017204
 30
0
 11
0.4043143783827218
 21
-1.579397387671719
 31
0
  0
LINE
  8
0
 10
0.3920064590666407
 20
-1.574307012038309
 30
0
 11
0.3994484567936706
 21
-1.57624885017204
 31
0
  0
LINE
  8
0
 10
0.3794123090667017
 20
-1.574307012038309
 30
0
 11
0.3920064590666407
 21
-1.574307012038309
 31
0
  0
LINE
  8
0
 10
0.3715409653166826
 20
-1.57624885017204
 30
0
 11
0.3794123090667017
 21
-1.574307012038309
 31
0
  0
LINE
  8
0
 10
0.3676768511126502
 20
-1.579111156989829
 30
0
 11
0.3715409653166826
 21
-1.57624885017204
 31
0
  0
LINE
  8
0
 10
0.3638127369086906
 20
-1.582832155853279
 30
0
 11
0.3676768511126502
 21
-1.579111156989829
 31
0
  0
LINE
  8
0
 10
0.3613797761126407
 20
-1.59227776835242
 30
0
 11
0.3638127369086906
 21
-1.582832155853279
 31
0
  0
LINE
  8
0
 10
0.3613797761126407
 20
-1.61889722175954
 30
0
 11
0.3613797761126407
 21
-1.59227776835242
 31
0
  0
LINE
  8
0
 10
0.3640989675926321
 20
-1.62805660357699
 30
0
 11
0.3613797761126407
 21
-1.61889722175954
 31
0
  0
LINE
  8
0
 10
0.3668181590696513
 20
-1.632350063803749
 30
0
 11
0.3640989675926321
 21
-1.62805660357699
 31
0
  0
LINE
  8
0
 10
0.3716840806586224
 20
-1.63506925528069
 30
0
 11
0.3668181590696513
 21
-1.632350063803749
 31
0
  0
LINE
  8
0
 10
0.3799847704316126
 20
-1.637449864622589
 30
0
 11
0.3716840806586224
 21
-1.63506925528069
 31
0
  0
LINE
  8
0
 10
0.4098958766786016
 20
-1.637449864622589
 30
0
 11
0.3799847704316126
 21
-1.637449864622589
 31
0
  0
LINE
  8
0
 10
0.4364762024245429
 20
-1.637449864622589
 30
0
 11
0.4364762024245429
 21
-1.574307012038309
 31
0
  0
LINE
  8
0
 10
0.4368958766786018
 20
-1.547243526866949
 30
0
 11
0.4368958766786018
 21
-1.55199983506249
 31
0
  0
LINE
  8
0
 10
0.517489937501603
 20
-1.58601588011992
 30
0
 11
0.5178958766786018
 21
-1.637449864622589
 31
0
  0
LINE
  8
0
 10
0.5148513328616319
 20
-1.58134757960209
 30
0
 11
0.517489937501603
 21
-1.58601588011992
 31
0
  0
LINE
  8
0
 10
0.5114008498706316
 20
-1.57749115743501
 30
0
 11
0.5148513328616319
 21
-1.58134757960209
 31
0
  0
LINE
  8
0
 10
0.5049058230625706
 20
-1.574307012038309
 30
0
 11
0.5114008498706316
 21
-1.57749115743501
 31
0
  0
LINE
  8
0
 10
0.468980206034601
 20
-1.574307012038309
 30
0
 11
0.5049058230625706
 21
-1.574307012038309
 31
0
  0
LINE
  8
0
 10
0.4683712972706307
 20
-1.637449864622589
 30
0
 11
0.468980206034601
 21
-1.574307012038309
 31
0
  0
LINE
  8
0
 10
0.5940563026826021
 20
-1.581050861177609
 30
0
 11
0.5983581462356306
 21
-1.587906924338889
 31
0
  0
LINE
  8
0
 10
0.5880068351876325
 20
-1.576480152403139
 30
0
 11
0.5940563026826021
 21
-1.581050861177609
 31
0
  0
LINE
  8
0
 10
0.5784621198056229
 20
-1.574307012038309
 30
0
 11
0.5880068351876325
 21
-1.576480152403139
 31
0
  0
LINE
  8
0
 10
0.5707994609785928
 20
-1.574307012038309
 30
0
 11
0.5784621198056229
 21
-1.574307012038309
 31
0
  0
LINE
  8
0
 10
0.5616580434296522
 20
-1.576480152403139
 30
0
 11
0.5707994609785928
 21
-1.574307012038309
 31
0
  0
LINE
  8
0
 10
0.5565496042106426
 20
-1.580781995955489
 30
0
 11
0.5616580434296522
 21
-1.576480152403139
 31
0
  0
LINE
  8
0
 10
0.5521133280476425
 20
-1.585083839507919
 30
0
 11
0.5565496042106426
 21
-1.580781995955489
 31
0
  0
LINE
  8
0
 10
0.5496935410496009
 20
-1.589654548282089
 30
0
 11
0.5521133280476425
 21
-1.585083839507919
 31
0
  0
LINE
  8
0
 10
0.5494246758265908
 20
-1.59462855488965
 30
0
 11
0.5496935410496009
 21
-1.589654548282089
 31
0
  0
LINE
  8
0
 10
0.5515755976046712
 20
-1.59933369627504
 30
0
 11
0.5494246758265908
 21
-1.59462855488965
 31
0
  0
LINE
  8
0
 10
0.5556085759345915
 20
-1.601215752829079
 30
0
 11
0.5515755976046712
 21
-1.59933369627504
 31
0
  0
LINE
  8
0
 10
0.5917709482946303
 20
-1.61089490082171
 30
0
 11
0.5556085759345915
 21
-1.601215752829079
 31
0
  0
LINE
  8
0
 10
0.5959383592376726
 20
-1.6123736595428
 30
0
 11
0.5917709482946303
 21
-1.61089490082171
 31
0
  0
LINE
  8
0
 10
0.5988958766786018
 20
-1.61748209876122
 30
0
 11
0.5959383592376726
 21
-1.6123736595428
 31
0
  0
LINE
  8
0
 10
0.5982237136225922
 20
-1.62178394231359
 30
0
 11
0.5988958766786018
 21
-1.61748209876122
 31
0
  0
LINE
  8
0
 10
0.5966105222906226
 20
-1.62622021847695
 30
0
 11
0.5982237136225922
 21
-1.62178394231359
 31
0
  0
LINE
  8
0
 10
0.5931152744066422
 20
-1.630387629418399
 30
0
 11
0.5966105222906226
 21
-1.62622021847695
 31
0
  0
LINE
  8
0
 10
0.5867969416886517
 20
-1.63536163602564
 30
0
 11
0.5931152744066422
 21
-1.630387629418399
 31
0
  0
LINE
  8
0
 10
0.5789998502486814
 20
-1.637449864622589
 30
0
 11
0.5867969416886517
 21
-1.63536163602564
 31
0
  0
LINE
  8
0
 10
0.5697240000896818
 20
-1.637449864622589
 30
0
 11
0.5789998502486814
 21
-1.637449864622589
 31
0
  0
LINE
  8
0
 10
0.5601792847076613
 20
-1.635496068636819
 30
0
 11
0.5697240000896818
 21
-1.637449864622589
 31
0
  0
LINE
  8
0
 10
0.5541298172126008
 20
-1.63105979247351
 30
0
 11
0.5601792847076613
 21
-1.635496068636819
 31
0
  0
LINE
  8
0
 10
0.5496935410496009
 20
-1.62406929670074
 30
0
 11
0.5541298172126008
 21
-1.63105979247351
 31
0
  0
LINE
  8
0
 10
0.626893643855572
 20
-1.637449864622589
 30
0
 11
0.626893643855572
 21
-1.5471738432026
 31
0
  0
LINE
  8
0
 10
0.6193654176385208
 20
-1.574307012038309
 30
0
 11
0.6393958766786016
 21
-1.574307012038309
 31
0
  0
LINE
  8
0
 10
0.6895522580005818
 20
-1.637449864622589
 30
0
 11
0.7203958766786017
 21
-1.637449864622589
 31
0
  0
LINE
  8
0
 10
0.6823199612096323
 20
-1.63494206236822
 30
0
 11
0.6895522580005818
 21
-1.637449864622589
 31
0
  0
LINE
  8
0
 10
0.6772148105306224
 20
-1.6332403454756
 30
0
 11
0.6823199612096323
 21
-1.63494206236822
 31
0
  0
LINE
  8
0
 10
0.6740240913596027
 20
-1.628986053244729
 30
0
 11
0.6772148105306224
 21
-1.6332403454756
 31
0
  0
LINE
  8
0
 10
0.6714715160186024
 20
-1.61983932494779
 30
0
 11
0.6740240913596027
 21
-1.628986053244729
 31
0
  0
LINE
  8
0
 10
0.6714715160186024
 20
-1.574307012038309
 30
0
 11
0.6714715160186024
 21
-1.61983932494779
 31
0
  0
LINE
  8
0
 10
0.7203958766786017
 20
-1.574307012038309
 30
0
 11
0.7203958766786017
 21
-1.637449864622589
 31
0
  0
LINE
  8
0
 10
0.736423153385571
 20
-1.578824926308189
 30
0
 11
0.7604665306556128
 21
-1.578824926308189
 31
0
  0
LINE
  8
0
 10
0.744580727816643
 20
-1.56279600812754
 30
0
 11
0.744723843158652
 21
-1.637449864622589
 31
0
  0
LINE
  8
0
 10
0.7468705732705931
 20
-1.554352203014651
 30
0
 11
0.744580727816643
 21
-1.56279600812754
 31
0
  0
LINE
  8
0
 10
0.7510209181586616
 20
-1.549200050742489
 30
0
 11
0.7468705732705931
 21
-1.554352203014651
 31
0
  0
LINE
  8
0
 10
0.7560299550896418
 20
-1.5474826666517
 30
0
 11
0.7510209181586616
 21
-1.549200050742489
 31
0
  0
LINE
  8
0
 10
0.7608958766786019
 20
-1.54762578199251
 30
0
 11
0.7560299550896418
 21
-1.5474826666517
 31
0
  0
LINE
  8
0
 10
0.8418958766786018
 20
-1.60573061039692
 30
0
 11
0.7933797761126408
 21
-1.605873725737669
 31
0
  0
LINE
  8
0
 10
0.8418958766786018
 20
-1.59213465301161
 30
0
 11
0.8418958766786018
 21
-1.60573061039692
 31
0
  0
LINE
  8
0
 10
0.8403216079286904
 20
-1.583690847898699
 30
0
 11
0.8418958766786018
 21
-1.59213465301161
 31
0
  0
LINE
  8
0
 10
0.8363143783827219
 20
-1.579397387671719
 30
0
 11
0.8403216079286904
 21
-1.583690847898699
 31
0
  0
LINE
  8
0
 10
0.8314484567936705
 20
-1.57624885017204
 30
0
 11
0.8363143783827219
 21
-1.579397387671719
 31
0
  0
LINE
  8
0
 10
0.8240064590666407
 20
-1.574307012038309
 30
0
 11
0.8314484567936705
 21
-1.57624885017204
 31
0
  0
LINE
  8
0
 10
0.8114123090667016
 20
-1.574307012038309
 30
0
 11
0.8240064590666407
 21
-1.574307012038309
 31
0
  0
LINE
  8
0
 10
0.8035409653166826
 20
-1.57624885017204
 30
0
 11
0.8114123090667016
 21
-1.574307012038309
 31
0
  0
LINE
  8
0
 10
0.7996768511126503
 20
-1.579111156989829
 30
0
 11
0.8035409653166826
 21
-1.57624885017204
 31
0
  0
LINE
  8
0
 10
0.7958127369086907
 20
-1.582832155853279
 30
0
 11
0.7996768511126503
 21
-1.579111156989829
 31
0
  0
LINE
  8
0
 10
0.7933797761126408
 20
-1.59227776835242
 30
0
 11
0.7958127369086907
 21
-1.582832155853279
 31
0
  0
LINE
  8
0
 10
0.7933797761126408
 20
-1.61889722175954
 30
0
 11
0.7933797761126408
 21
-1.59227776835242
 31
0
  0
LINE
  8
0
 10
0.7960989675926321
 20
-1.62805660357699
 30
0
 11
0.7933797761126408
 21
-1.61889722175954
 31
0
  0
LINE
  8
0
 10
0.7988181590696515
 20
-1.632350063803749
 30
0
 11
0.7960989675926321
 21
-1.62805660357699
 31
0
  0
LINE
  8
0
 10
0.8036840806586224
 20
-1.63506925528069
 30
0
 11
0.7988181590696515
 21
-1.632350063803749
 31
0
  0
LINE
  8
0
 10
0.8119847704316127
 20
-1.637449864622589
 30
0
 11
0.8036840806586224
 21
-1.63506925528069
 31
0
  0
LINE
  8
0
 10
0.8418958766786018
 20
-1.637449864622589
 30
0
 11
0.8119847704316127
 21
-1.637449864622589
 31
0
  0
LINE
  8
0
 10
0.922489937501603
 20
-1.58601588011992
 30
0
 11
0.922895876678602
 21
-1.637449864622589
 31
0
  0
LINE
  8
0
 10
0.9198513328616318
 20
-1.58134757960209
 30
0
 11
0.922489937501603
 21
-1.58601588011992
 31
0
  0
LINE
  8
0
 10
0.9164008498706316
 20
-1.57749115743501
 30
0
 11
0.9198513328616318
 21
-1.58134757960209
 31
0
  0
LINE
  8
0
 10
0.9099058230625707
 20
-1.574307012038309
 30
0
 11
0.9164008498706316
 21
-1.57749115743501
 31
0
  0
LINE
  8
0
 10
0.873980206034601
 20
-1.574307012038309
 30
0
 11
0.9099058230625707
 21
-1.574307012038309
 31
0
  0
LINE
  8
0
 10
0.8733712972706308
 20
-1.637449864622589
 30
0
 11
0.873980206034601
 21
-1.574307012038309
 31
0
  0
LINE
  8
0
 10
-1.077855406970117
 20
-1.49540556390279
 30
0
 11
-1.077855406970117
 21
-1.405337842654561
 31
0
  0
LINE
  8
0
 10
-1.021104123321398
 20
-1.405337842654561
 30
0
 11
-1.021104123321398
 21
-1.49540556390279
 31
0
  0
LINE
  8
0
 10
-1.021104123321398
 20
-1.49540556390279
 30
0
 11
-1.077855406970117
 21
-1.405337842654561
 31
0
  0
LINE
  8
0
 10
-0.9892289643829681
 20
-1.49540556390279
 30
0
 11
-0.9401041233213983
 21
-1.49540556390279
 31
0
  0
LINE
  8
0
 10
-0.9892289643829681
 20
-1.405337842654581
 30
0
 11
-0.9892289643829681
 21
-1.49540556390279
 31
0
  0
LINE
  8
0
 10
-0.9118914807174371
 20
-1.44628522394468
 30
0
 11
-0.9118914807174371
 21
-1.405337842654581
 31
0
  0
LINE
  8
0
 10
-0.9118914807174371
 20
-1.44628522394468
 30
0
 11
-0.8795131572207393
 21
-1.44628522394468
 31
0
  0
LINE
  8
0
 10
-0.8762147274996496
 20
-1.49540556390279
 30
0
 11
-0.9118914807174371
 21
-1.49540556390279
 31
0
  0
LINE
  8
0
 10
-0.8667317420514372
 20
-1.49102017703739
 30
0
 11
-0.8762147274996496
 21
-1.49540556390279
 31
0
  0
LINE
  8
0
 10
-0.86281485675757
 20
-1.48689713988579
 30
0
 11
-0.8667317420514372
 21
-1.49102017703739
 31
0
  0
LINE
  8
0
 10
-0.8591041233213983
 20
-1.478032610010379
 30
0
 11
-0.86281485675757
 21
-1.48689713988579
 31
0
  0
LINE
  8
0
 10
-0.8593102751787592
 20
-1.465869650413601
 30
0
 11
-0.8591041233213983
 21
-1.478032610010379
 31
0
  0
LINE
  8
0
 10
-0.8630210086149274
 20
-1.455355905677799
 30
0
 11
-0.8593102751787592
 21
-1.465869650413601
 31
0
  0
LINE
  8
0
 10
-0.8679686531967383
 20
-1.4502021092383
 30
0
 11
-0.8630210086149274
 21
-1.455355905677799
 31
0
  0
LINE
  8
0
 10
-0.8765275096284569
 20
-1.445090964907749
 30
0
 11
-0.8679686531967383
 21
-1.4502021092383
 31
0
  0
LINE
  8
0
 10
-0.8765275096284569
 20
-1.445090964907749
 30
0
 11
-0.8795131572207393
 21
-1.44628522394468
 31
0
  0
LINE
  8
0
 10
-0.8795131572207393
 20
-1.44628522394468
 30
0
 11
-0.8765275096284569
 21
-1.445090964907749
 31
0
  0
LINE
  8
0
 10
-0.8733286014936276
 20
-1.4438114016538
 30
0
 11
-0.8765275096284569
 21
-1.445090964907749
 31
0
  0
LINE
  8
0
 10
-0.867556349481667
 20
-1.43989451635988
 30
0
 11
-0.8733286014936276
 21
-1.4438114016538
 31
0
  0
LINE
  8
0
 10
-0.86281485675757
 20
-1.43082383462679
 30
0
 11
-0.867556349481667
 21
-1.43989451635988
 31
0
  0
LINE
  8
0
 10
-0.8634333123303478
 20
-1.42237160846645
 30
0
 11
-0.86281485675757
 21
-1.43082383462679
 31
0
  0
LINE
  8
0
 10
-0.8654948309058782
 20
-1.4143316860213
 30
0
 11
-0.8634333123303478
 21
-1.42237160846645
 31
0
  0
LINE
  8
0
 10
-0.871473234775538
 20
-1.407940978436489
 30
0
 11
-0.8654948309058782
 21
-1.4143316860213
 31
0
  0
LINE
  8
0
 10
-0.8815746757962698
 20
-1.405337842654581
 30
0
 11
-0.871473234775538
 21
-1.407940978436489
 31
0
  0
LINE
  8
0
 10
-0.9118914807174371
 20
-1.405337842654581
 30
0
 11
-0.8815746757962698
 21
-1.405337842654581
 31
0
  0
LINE
  8
0
 10
-0.9118914807174371
 20
-1.49540556390279
 30
0
 11
-0.9118914807174371
 21
-1.44628522394468
 31
0
  0
LINE
  8
0
 10
-0.7281601522954079
 20
-1.49540556390279
 30
0
 11
-0.6971041233213983
 21
-1.49540556390279
 31
0
  0
LINE
  8
0
 10
-0.7354590346804289
 20
-1.49345430058391
 30
0
 11
-0.7281601522954079
 21
-1.49540556390279
 31
0
  0
LINE
  8
0
 10
-0.7397524949074469
 20
-1.49102133978884
 30
0
 11
-0.7354590346804289
 21
-1.49345430058391
 31
0
  0
LINE
  8
0
 10
-0.743759724453419
 20
-1.48672787956184
 30
0
 11
-0.7397524949074469
 21
-1.49102133978884
 31
0
  0
LINE
  8
0
 10
-0.7457633392264071
 20
-1.47756849774434
 30
0
 11
-0.743759724453419
 21
-1.48672787956184
 31
0
  0
LINE
  8
0
 10
-0.7457633392264071
 20
-1.44980412161019
 30
0
 11
-0.7457633392264071
 21
-1.47756849774434
 31
0
  0
LINE
  8
0
 10
-0.743902839795428
 20
-1.441217201156509
 30
0
 11
-0.7457633392264071
 21
-1.44980412161019
 31
0
  0
LINE
  8
0
 10
-0.7398956102493796
 20
-1.436351279565999
 30
0
 11
-0.743902839795428
 21
-1.441217201156509
 31
0
  0
LINE
  8
0
 10
-0.7354590346804289
 20
-1.434204549452499
 30
0
 11
-0.7398956102493796
 21
-1.436351279565999
 31
0
  0
LINE
  8
0
 10
-0.7275876909304171
 20
-1.43226271131851
 30
0
 11
-0.7354590346804289
 21
-1.434204549452499
 31
0
  0
LINE
  8
0
 10
-0.6972472386603586
 20
-1.43226271131851
 30
0
 11
-0.7275876909304171
 21
-1.43226271131851
 31
0
  0
LINE
  8
0
 10
-0.6200691247359903
 20
-1.47971209904561
 30
0
 11
-0.6199533945213589
 21
-1.43226271131851
 31
0
  0
LINE
  8
0
 10
-0.6241727879523896
 20
-1.48874336374724
 30
0
 11
-0.6200691247359903
 21
-1.47971209904561
 31
0
  0
LINE
  8
0
 10
-0.6300947436454373
 20
-1.493110806071491
 30
0
 11
-0.6241727879523896
 21
-1.48874336374724
 31
0
  0
LINE
  8
0
 10
-0.6383114571724182
 20
-1.49540556390279
 30
0
 11
-0.6300947436454373
 21
-1.493110806071491
 31
0
  0
LINE
  8
0
 10
-0.6503774418963986
 20
-1.49540556390279
 30
0
 11
-0.6383114571724182
 21
-1.49540556390279
 31
0
  0
LINE
  8
0
 10
-0.6585941554233797
 20
-1.493036781625309
 30
0
 11
-0.6503774418963986
 21
-1.49540556390279
 31
0
  0
LINE
  8
0
 10
-0.6647381844543998
 20
-1.488447265962719
 30
0
 11
-0.6585941554233797
 21
-1.493036781625309
 31
0
  0
LINE
  8
0
 10
-0.6685874556574091
 20
-1.479638356868239
 30
0
 11
-0.6647381844543998
 21
-1.488447265962719
 31
0
  0
LINE
  8
0
 10
-0.6686614801024371
 20
-1.447881869460689
 30
0
 11
-0.6685874556574091
 21
-1.479638356868239
 31
0
  0
LINE
  8
0
 10
-0.6645161111164272
 20
-1.43907296036622
 30
0
 11
-0.6686614801024371
 21
-1.447881869460689
 31
0
  0
LINE
  8
0
 10
-0.6585941554233797
 20
-1.434483444703619
 30
0
 11
-0.6645161111164272
 21
-1.43907296036622
 31
0
  0
LINE
  8
0
 10
-0.650229393006339
 20
-1.43226271131851
 30
0
 11
-0.6585941554233797
 21
-1.434483444703619
 31
0
  0
LINE
  8
0
 10
-0.6199533945213589
 20
-1.43226271131851
 30
0
 11
-0.650229393006339
 21
-1.43226271131851
 31
0
  0
LINE
  8
0
 10
-0.6201014434143799
 20
-1.492962757179119
 30
0
 11
-0.6200691247359903
 21
-1.47971209904561
 31
0
  0
LINE
  8
0
 10
-0.6180287589213768
 20
-1.49540556390279
 30
0
 11
-0.6201014434143799
 21
-1.492962757179119
 31
0
  0
LINE
  8
0
 10
-0.6161041233213983
 20
-1.49540556390279
 30
0
 11
-0.6180287589213768
 21
-1.49540556390279
 31
0
  0
LINE
  8
0
 10
-0.5906399215519268
 20
-1.493851400017909
 30
0
 11
-0.5906399215519268
 21
-1.49475146735114
 31
0
  0
LINE
  8
0
 10
-0.5895398392549068
 20
-1.493851400017909
 30
0
 11
-0.5906399215519268
 21
-1.493851400017909
 31
0
  0
LINE
  8
0
 10
-0.5895398392549068
 20
-1.49475146735114
 30
0
 11
-0.5895398392549068
 21
-1.493851400017909
 31
0
  0
LINE
  8
0
 10
-0.5906399215519268
 20
-1.49475146735114
 30
0
 11
-0.5895398392549068
 21
-1.49475146735114
 31
0
  0
LINE
  8
0
 10
-0.5912641233213981
 20
-1.49324556390279
 30
0
 11
-0.5912641233213981
 21
-1.49540556390279
 31
0
  0
LINE
  8
0
 10
-0.5891041233213983
 20
-1.49324556390279
 30
0
 11
-0.5912641233213981
 21
-1.49324556390279
 31
0
  0
LINE
  8
0
 10
-0.5891041233213983
 20
-1.49540556390279
 30
0
 11
-0.5891041233213983
 21
-1.49324556390279
 31
0
  0
LINE
  8
0
 10
-0.5912641233213981
 20
-1.49540556390279
 30
0
 11
-0.5891041233213983
 21
-1.49540556390279
 31
0
  0
LINE
  8
0
 10
-0.456011698723607
 20
-1.441607683492879
 30
0
 11
-0.4479285378292698
 21
-1.441333678039
 31
0
  0
LINE
  8
0
 10
-0.4620398187126884
 20
-1.40804201537167
 30
0
 11
-0.4562857041778079
 21
-1.405337842654581
 31
0
  0
LINE
  8
0
 10
-0.468341944155989
 20
-1.41215209718259
 30
0
 11
-0.4620398187126884
 21
-1.40804201537167
 31
0
  0
LINE
  8
0
 10
-0.4716300096046581
 20
-1.419002233533669
 30
0
 11
-0.468341944155989
 21
-1.41215209718259
 31
0
  0
LINE
  8
0
 10
-0.47190401505887
 20
-1.428044413517449
 30
0
 11
-0.4716300096046581
 21
-1.419002233533669
 31
0
  0
LINE
  8
0
 10
-0.46806793870213
 20
-1.434894549868879
 30
0
 11
-0.47190401505887
 21
-1.428044413517449
 31
0
  0
LINE
  8
0
 10
-0.4617658132588367
 20
-1.4391416344066
 30
0
 11
-0.46806793870213
 21
-1.434894549868879
 31
0
  0
LINE
  8
0
 10
-0.456011698723607
 20
-1.441607683492879
 30
0
 11
-0.4617658132588367
 21
-1.4391416344066
 31
0
  0
LINE
  8
0
 10
-0.4662869032507369
 20
-1.4457177653038
 30
0
 11
-0.456011698723607
 21
-1.441607683492879
 31
0
  0
LINE
  8
0
 10
-0.4725890286936882
 20
-1.452704904381979
 30
0
 11
-0.4662869032507369
 21
-1.4457177653038
 31
0
  0
LINE
  8
0
 10
-0.4762684623157075
 20
-1.461884087092889
 30
0
 11
-0.4725890286936882
 21
-1.452704904381979
 31
0
  0
LINE
  8
0
 10
-0.4762684623157075
 20
-1.475858365249569
 30
0
 11
-0.4762684623157075
 21
-1.461884087092889
 31
0
  0
LINE
  8
0
 10
-0.4720410177856174
 20
-1.48448953705209
 30
0
 11
-0.4762684623157075
 21
-1.475858365249569
 31
0
  0
LINE
  8
0
 10
-0.4660128977965288
 20
-1.49079166249538
 30
0
 11
-0.4720410177856174
 21
-1.48448953705209
 31
0
  0
LINE
  8
0
 10
-0.4580667396292084
 20
-1.49540556390279
 30
0
 11
-0.4660128977965288
 21
-1.49079166249538
 31
0
  0
LINE
  8
0
 10
-0.4458734969239267
 20
-1.49540556390279
 30
0
 11
-0.4580667396292084
 21
-1.49540556390279
 31
0
  0
LINE
  8
0
 10
-0.4379273387563372
 20
-1.49120267067637
 30
0
 11
-0.4458734969239267
 21
-1.49540556390279
 31
0
  0
LINE
  8
0
 10
-0.4318992187672485
 20
-1.484900545233049
 30
0
 11
-0.4379273387563372
 21
-1.49120267067637
 31
0
  0
LINE
  8
0
 10
-0.4271041233213982
 20
-1.475584359795379
 30
0
 11
-0.4318992187672485
 21
-1.484900545233049
 31
0
  0
LINE
  8
0
 10
-0.4276521342292071
 20
-1.461473078911889
 30
0
 11
-0.4271041233213982
 21
-1.475584359795379
 31
0
  0
LINE
  8
0
 10
-0.4316252133130402
 20
-1.4531159125633
 30
0
 11
-0.4276521342292071
 21
-1.461473078911889
 31
0
  0
LINE
  8
0
 10
-0.4372423251211696
 20
-1.446128773484779
 30
0
 11
-0.4316252133130402
 21
-1.4531159125633
 31
0
  0
LINE
  8
0
 10
-0.4479285378292698
 20
-1.441333678039
 30
0
 11
-0.4372423251211696
 21
-1.446128773484779
 31
0
  0
LINE
  8
0
 10
-0.4409413987507069
 20
-1.4391416344066
 30
0
 11
-0.4479285378292698
 21
-1.441333678039
 31
0
  0
LINE
  8
0
 10
-0.4362833060320482
 20
-1.434620544414649
 30
0
 11
-0.4409413987507069
 21
-1.4391416344066
 31
0
  0
LINE
  8
0
 10
-0.4316252133130402
 20
-1.428044413517449
 30
0
 11
-0.4362833060320482
 21
-1.434620544414649
 31
0
  0
LINE
  8
0
 10
-0.431488210586198
 20
-1.419139236260769
 30
0
 11
-0.4316252133130402
 21
-1.428044413517449
 31
0
  0
LINE
  8
0
 10
-0.4355982923967895
 20
-1.41215209718259
 30
0
 11
-0.431488210586198
 21
-1.419139236260769
 31
0
  0
LINE
  8
0
 10
-0.4416264123859692
 20
-1.40790501264458
 30
0
 11
-0.4355982923967895
 21
-1.41215209718259
 31
0
  0
LINE
  8
0
 10
-0.4475175296482085
 20
-1.405337842654581
 30
0
 11
-0.4416264123859692
 21
-1.40790501264458
 31
0
  0
LINE
  8
0
 10
-0.4562857041778079
 20
-1.405337842654581
 30
0
 11
-0.4475175296482085
 21
-1.405337842654581
 31
0
  0
LINE
  8
0
 10
-0.35809358669434
 20
-1.49540556390279
 30
0
 11
-0.35809358669434
 21
-1.459314535338699
 31
0
  0
LINE
  8
0
 10
-0.3949222983810869
 20
-1.47748038893408
 30
0
 11
-0.3461041233213982
 21
-1.47748038893408
 31
0
  0
LINE
  8
0
 10
-0.35809358669434
 20
-1.405337842654581
 30
0
 11
-0.3949222983810869
 21
-1.47748038893408
 31
0
  0
LINE
  8
0
 10
-0.2151601522954079
 20
-1.49540556390279
 30
0
 11
-0.1841041233213982
 21
-1.49540556390279
 31
0
  0
LINE
  8
0
 10
-0.2224590346804289
 20
-1.49345430058391
 30
0
 11
-0.2151601522954079
 21
-1.49540556390279
 31
0
  0
LINE
  8
0
 10
-0.2267524949074468
 20
-1.49102133978884
 30
0
 11
-0.2224590346804289
 21
-1.49345430058391
 31
0
  0
LINE
  8
0
 10
-0.230759724453419
 20
-1.48672787956184
 30
0
 11
-0.2267524949074468
 21
-1.49102133978884
 31
0
  0
LINE
  8
0
 10
-0.232763339226407
 20
-1.47756849774434
 30
0
 11
-0.230759724453419
 21
-1.48672787956184
 31
0
  0
LINE
  8
0
 10
-0.232763339226407
 20
-1.44980412161019
 30
0
 11
-0.232763339226407
 21
-1.47756849774434
 31
0
  0
LINE
  8
0
 10
-0.230902839795428
 20
-1.441217201156509
 30
0
 11
-0.232763339226407
 21
-1.44980412161019
 31
0
  0
LINE
  8
0
 10
-0.2268956102493794
 20
-1.436351279565999
 30
0
 11
-0.230902839795428
 21
-1.441217201156509
 31
0
  0
LINE
  8
0
 10
-0.2224590346804289
 20
-1.434204549452499
 30
0
 11
-0.2268956102493794
 21
-1.436351279565999
 31
0
  0
LINE
  8
0
 10
-0.214587690930417
 20
-1.43226271131851
 30
0
 11
-0.2224590346804289
 21
-1.434204549452499
 31
0
  0
LINE
  8
0
 10
-0.1842472386603586
 20
-1.43226271131851
 30
0
 11
-0.214587690930417
 21
-1.43226271131851
 31
0
  0
LINE
  8
0
 10
-0.1321287743673674
 20
-1.49540556390279
 30
0
 11
-0.1321287743673674
 21
-1.43226271131851
 31
0
  0
LINE
  8
0
 10
-0.1031041233213982
 20
-1.44315970104914
 30
0
 11
-0.1031041233213982
 21
-1.49540556390279
 31
0
  0
LINE
  8
0
 10
-0.1063516367254269
 20
-1.43808546135584
 30
0
 11
-0.1031041233213982
 21
-1.44315970104914
 31
0
  0
LINE
  8
0
 10
-0.1095991501293684
 20
-1.434432008776619
 30
0
 11
-0.1063516367254269
 21
-1.43808546135584
 31
0
  0
LINE
  8
0
 10
-0.1156882377633992
 20
-1.43226271131851
 30
0
 11
-0.1095991501293684
 21
-1.434432008776619
 31
0
  0
LINE
  8
0
 10
-0.1597326383013969
 20
-1.43226271131851
 30
0
 11
-0.1156882377633992
 21
-1.43226271131851
 31
0
  0
LINE
  8
0
 10
-0.1605445166524296
 20
-1.49540556390279
 30
0
 11
-0.1597326383013969
 21
-1.43226271131851
 31
0
  0
LINE
  8
0
 10
0.04114957440856233
 20
-1.43226271131851
 30
0
 11
0.00993675846046972
 21
-1.43226271131851
 31
0
  0
LINE
  8
0
 10
0.04816222611252308
 20
-1.434633895475199
 30
0
 11
0.04114957440856233
 21
-1.43226271131851
 31
0
  0
LINE
  8
0
 10
0.05259880168156087
 20
-1.436923740929549
 30
0
 11
0.04816222611252308
 21
-1.434633895475199
 31
0
  0
LINE
  8
0
 10
0.05589045452052233
 20
-1.441074085815701
 30
0
 11
0.05259880168156087
 21
-1.436923740929549
 31
0
  0
LINE
  8
0
 10
0.05889587667860179
 20
-1.44994723695131
 30
0
 11
0.05589045452052233
 21
-1.441074085815701
 31
0
  0
LINE
  8
0
 10
0.05889587667860179
 20
-1.47742538240353
 30
0
 11
0.05889587667860179
 21
-1.44994723695131
 31
0
  0
LINE
  8
0
 10
0.0568922619085024
 20
-1.486441648880209
 30
0
 11
0.05889587667860179
 21
-1.47742538240353
 31
0
  0
LINE
  8
0
 10
0.05202634031656271
 20
-1.490735109107191
 30
0
 11
0.0568922619085024
 21
-1.486441648880209
 31
0
  0
LINE
  8
0
 10
0.04873468747751031
 20
-1.493024954561519
 30
0
 11
0.05202634031656271
 21
-1.490735109107191
 31
0
  0
LINE
  8
0
 10
0.04057711304348049
 20
-1.49540556390279
 30
0
 11
0.04873468747751031
 21
-1.493024954561519
 31
0
  0
LINE
  8
0
 10
0.01023666077351299
 20
-1.49540556390279
 30
0
 11
0.04057711304348049
 21
-1.49540556390279
 31
0
  0
LINE
  8
0
 10
0.009807314750520163
 20
-1.40500901990949
 30
0
 11
0.01023666077351299
 21
-1.49540556390279
 31
0
  0
LINE
  8
0
 10
0.1398958766786018
 20
-1.463686309677119
 30
0
 11
0.09137977611264068
 21
-1.46382942501787
 31
0
  0
LINE
  8
0
 10
0.1398958766786018
 20
-1.450090352291809
 30
0
 11
0.1398958766786018
 21
-1.463686309677119
 31
0
  0
LINE
  8
0
 10
0.1383216079286831
 20
-1.4416465471789
 30
0
 11
0.1398958766786018
 21
-1.450090352291809
 31
0
  0
LINE
  8
0
 10
0.1343143783827218
 20
-1.43735308695192
 30
0
 11
0.1383216079286831
 21
-1.4416465471789
 31
0
  0
LINE
  8
0
 10
0.1294484567936597
 20
-1.434204549452239
 30
0
 11
0.1343143783827218
 21
-1.43735308695192
 31
0
  0
LINE
  8
0
 10
0.1220064590666298
 20
-1.43226271131851
 30
0
 11
0.1294484567936597
 21
-1.434204549452239
 31
0
  0
LINE
  8
0
 10
0.1094123090667017
 20
-1.43226271131851
 30
0
 11
0.1220064590666298
 21
-1.43226271131851
 31
0
  0
LINE
  8
0
 10
0.1015409653166898
 20
-1.434204549452239
 30
0
 11
0.1094123090667017
 21
-1.43226271131851
 31
0
  0
LINE
  8
0
 10
0.09767685111265019
 20
-1.43706685627003
 30
0
 11
0.1015409653166898
 21
-1.434204549452239
 31
0
  0
LINE
  8
0
 10
0.09381273690869059
 20
-1.44078785513348
 30
0
 11
0.09767685111265019
 21
-1.43706685627003
 31
0
  0
LINE
  8
0
 10
0.09137977611264068
 20
-1.450233467632619
 30
0
 11
0.09381273690869059
 21
-1.44078785513348
 31
0
  0
LINE
  8
0
 10
0.09137977611264068
 20
-1.476852921039739
 30
0
 11
0.09137977611264068
 21
-1.450233467632619
 31
0
  0
LINE
  8
0
 10
0.09409896759263213
 20
-1.486012302857189
 30
0
 11
0.09137977611264068
 21
-1.476852921039739
 31
0
  0
LINE
  8
0
 10
0.09681815906965131
 20
-1.49030576308395
 30
0
 11
0.09409896759263213
 21
-1.486012302857189
 31
0
  0
LINE
  8
0
 10
0.1016840806586224
 20
-1.493024954560889
 30
0
 11
0.09681815906965131
 21
-1.49030576308395
 31
0
  0
LINE
  8
0
 10
0.1099847704316126
 20
-1.49540556390279
 30
0
 11
0.1016840806586224
 21
-1.493024954560889
 31
0
  0
LINE
  8
0
 10
0.1398958766786018
 20
-1.49540556390279
 30
0
 11
0.1099847704316126
 21
-1.49540556390279
 31
0
  0
LINE
  8
0
 10
0.1664762024245501
 20
-1.49540556390279
 30
0
 11
0.1664762024245501
 21
-1.43226271131851
 31
0
  0
LINE
  8
0
 10
0.1668958766786018
 20
-1.40519922614715
 30
0
 11
0.1668958766786018
 21
-1.409955534342689
 31
0
  0
LINE
  8
0
 10
0.3288958766786018
 20
-1.446173719238779
 30
0
 11
0.3288958766786018
 21
-1.49540556390279
 31
0
  0
LINE
  8
0
 10
0.2720985320854707
 20
-1.446173719238779
 30
0
 11
0.2720985320854707
 21
-1.405337842654581
 31
0
  0
LINE
  8
0
 10
0.2720985320854707
 20
-1.446173719238779
 30
0
 11
0.2720985320854707
 21
-1.405337842654581
 31
0
  0
LINE
  8
0
 10
0.2720985320854707
 20
-1.446173719238779
 30
0
 11
0.3288958766786018
 21
-1.446173719238779
 31
0
  0
LINE
  8
0
 10
0.2720985320854707
 20
-1.49540556390279
 30
0
 11
0.2720985320854707
 21
-1.446173719238779
 31
0
  0
LINE
  8
0
 10
0.3288958766786018
 20
-1.405337842654581
 30
0
 11
0.3288958766786018
 21
-1.446173719238779
 31
0
  0
LINE
  8
0
 10
0.2720985320854707
 20
-1.49540556390279
 30
0
 11
0.2720985320854707
 21
-1.446173719238779
 31
0
  0
LINE
  8
0
 10
0.3716368417196099
 20
-1.493361013011699
 30
0
 11
0.3791852459156798
 21
-1.49540556390279
 31
0
  0
LINE
  8
0
 10
0.3667769102516431
 20
-1.490982748676519
 30
0
 11
0.3716368417196099
 21
-1.493361013011699
 31
0
  0
LINE
  8
0
 10
0.3628476039596899
 20
-1.48643302560041
 30
0
 11
0.3667769102516431
 21
-1.490982748676519
 31
0
  0
LINE
  8
0
 10
0.3607795480166606
 20
-1.47723017665089
 30
0
 11
0.3628476039596899
 21
-1.48643302560041
 31
0
  0
LINE
  8
0
 10
0.3607795480166606
 20
-1.44993183819369
 30
0
 11
0.3607795480166606
 21
-1.47723017665089
 31
0
  0
LINE
  8
0
 10
0.3631578123506515
 20
-1.44134940602741
 30
0
 11
0.3607795480166606
 21
-1.44993183819369
 31
0
  0
LINE
  8
0
 10
0.3669837158486407
 20
-1.437006488545579
 30
0
 11
0.3631578123506515
 21
-1.44134940602741
 31
0
  0
LINE
  8
0
 10
0.371326633328652
 20
-1.434628224210099
 30
0
 11
0.3669837158486407
 21
-1.437006488545579
 31
0
  0
LINE
  8
0
 10
0.3787716347276219
 20
-1.43226271131851
 30
0
 11
0.371326633328652
 21
-1.434628224210099
 31
0
  0
LINE
  8
0
 10
0.3909731647946719
 20
-1.43226271131851
 30
0
 11
0.3787716347276219
 21
-1.43226271131851
 31
0
  0
LINE
  8
0
 10
0.3988317773816998
 20
-1.43442141861581
 30
0
 11
0.3909731647946719
 21
-1.43226271131851
 31
0
  0
LINE
  8
0
 10
0.403071292064702
 20
-1.436489474559719
 30
0
 11
0.3988317773816998
 21
-1.43442141861581
 31
0
  0
LINE
  8
0
 10
0.4078278207356525
 20
-1.441556211621719
 30
0
 11
0.403071292064702
 21
-1.436489474559719
 31
0
  0
LINE
  8
0
 10
0.409689071084653
 20
-1.450138643787999
 30
0
 11
0.4078278207356525
 21
-1.441556211621719
 31
0
  0
LINE
  8
0
 10
0.4098958766786016
 20
-1.47743698224519
 30
0
 11
0.409689071084653
 21
-1.450138643787999
 31
0
  0
LINE
  8
0
 10
0.4076210151416199
 20
-1.48612281720879
 30
0
 11
0.4098958766786016
 21
-1.47743698224519
 31
0
  0
LINE
  8
0
 10
0.4031746948616201
 20
-1.49046573469059
 30
0
 11
0.4076210151416199
 21
-1.48612281720879
 31
0
  0
LINE
  8
0
 10
0.399555596960643
 20
-1.49305080462013
 30
0
 11
0.4031746948616201
 21
-1.49046573469059
 31
0
  0
LINE
  8
0
 10
0.3914901787796624
 20
-1.49540556390279
 30
0
 11
0.399555596960643
 21
-1.49305080462013
 31
0
  0
LINE
  8
0
 10
0.3791852459156798
 20
-1.49540556390279
 30
0
 11
0.3914901787796624
 21
-1.49540556390279
 31
0
  0
LINE
  8
0
 10
0.464295771674653
 20
-1.49540556390279
 30
0
 11
0.4656361386986027
 21
-1.49540556390279
 31
0
  0
LINE
  8
0
 10
0.4605760489615714
 20
-1.493146331173579
 30
0
 11
0.464295771674653
 21
-1.49540556390279
 31
0
  0
LINE
  8
0
 10
0.4576534096856413
 20
-1.48119007959579
 30
0
 11
0.4605760489615714
 21
-1.493146331173579
 31
0
  0
LINE
  8
0
 10
0.4579191041666127
 20
-1.4054671529365
 30
0
 11
0.4576534096856413
 21
-1.48119007959579
 31
0
  0
LINE
  8
0
 10
0.5231984506045919
 20
-1.49540556390279
 30
0
 11
0.5718958766786019
 21
-1.49540556390279
 31
0
  0
LINE
  8
0
 10
0.5713722484406497
 20
-1.43226271131851
 30
0
 11
0.5231984506045919
 21
-1.49540556390279
 31
0
  0
LINE
  8
0
 10
0.523093724957631
 20
-1.43226271131851
 30
0
 11
0.5713722484406497
 21
-1.43226271131851
 31
0
  0
LINE
  8
0
 10
0.6480563026826021
 20
-1.43900656045781
 30
0
 11
0.6523581462356306
 21
-1.44586262361909
 31
0
  0
LINE
  8
0
 10
0.6420068351876326
 20
-1.43443585168334
 30
0
 11
0.6480563026826021
 21
-1.43900656045781
 31
0
  0
LINE
  8
0
 10
0.6324621198056229
 20
-1.43226271131851
 30
0
 11
0.6420068351876326
 21
-1.43443585168334
 31
0
  0
LINE
  8
0
 10
0.6247994609785928
 20
-1.43226271131851
 30
0
 11
0.6324621198056229
 21
-1.43226271131851
 31
0
  0
LINE
  8
0
 10
0.6156580434296519
 20
-1.43443585168334
 30
0
 11
0.6247994609785928
 21
-1.43226271131851
 31
0
  0
LINE
  8
0
 10
0.6105496042106424
 20
-1.43873769523569
 30
0
 11
0.6156580434296519
 21
-1.43443585168334
 31
0
  0
LINE
  8
0
 10
0.6061133280476425
 20
-1.443039538788129
 30
0
 11
0.6105496042106424
 21
-1.43873769523569
 31
0
  0
LINE
  8
0
 10
0.6036935410496007
 20
-1.44761024756229
 30
0
 11
0.6061133280476425
 21
-1.443039538788129
 31
0
  0
LINE
  8
0
 10
0.6034246758265799
 20
-1.45258425416986
 30
0
 11
0.6036935410496007
 21
-1.44761024756229
 31
0
  0
LINE
  8
0
 10
0.6055755976046711
 20
-1.457289395555239
 30
0
 11
0.6034246758265799
 21
-1.45258425416986
 31
0
  0
LINE
  8
0
 10
0.6096085759345915
 20
-1.45917145210928
 30
0
 11
0.6055755976046711
 21
-1.457289395555239
 31
0
  0
LINE
  8
0
 10
0.6457709482946302
 20
-1.46885060010191
 30
0
 11
0.6096085759345915
 21
-1.45917145210928
 31
0
  0
LINE
  8
0
 10
0.6499383592376726
 20
-1.470329358822999
 30
0
 11
0.6457709482946302
 21
-1.46885060010191
 31
0
  0
LINE
  8
0
 10
0.6528958766786017
 20
-1.47543779804143
 30
0
 11
0.6499383592376726
 21
-1.470329358822999
 31
0
  0
LINE
  8
0
 10
0.6522237136225922
 20
-1.4797396415938
 30
0
 11
0.6528958766786017
 21
-1.47543779804143
 31
0
  0
LINE
  8
0
 10
0.6506105222906227
 20
-1.484175917757149
 30
0
 11
0.6522237136225922
 21
-1.4797396415938
 31
0
  0
LINE
  8
0
 10
0.6471152744066422
 20
-1.4883433286986
 30
0
 11
0.6506105222906227
 21
-1.484175917757149
 31
0
  0
LINE
  8
0
 10
0.6407969416886518
 20
-1.493317335305839
 30
0
 11
0.6471152744066422
 21
-1.4883433286986
 31
0
  0
LINE
  8
0
 10
0.6329998502486816
 20
-1.49540556390279
 30
0
 11
0.6407969416886518
 21
-1.493317335305839
 31
0
  0
LINE
  8
0
 10
0.6237240000896818
 20
-1.49540556390279
 30
0
 11
0.6329998502486816
 21
-1.49540556390279
 31
0
  0
LINE
  8
0
 10
0.6141792847076613
 20
-1.49345176791702
 30
0
 11
0.6237240000896818
 21
-1.49540556390279
 31
0
  0
LINE
  8
0
 10
0.6081298172126007
 20
-1.489015491753709
 30
0
 11
0.6141792847076613
 21
-1.49345176791702
 31
0
  0
LINE
  8
0
 10
0.6036935410496007
 20
-1.482024995980939
 30
0
 11
0.6081298172126007
 21
-1.489015491753709
 31
0
  0
LINE
  8
0
 10
0.6808936438555721
 20
-1.49540556390279
 30
0
 11
0.6808936438555721
 21
-1.4051295424828
 31
0
  0
LINE
  8
0
 10
0.6733654176385206
 20
-1.43226271131851
 30
0
 11
0.6933958766786019
 21
-1.43226271131851
 31
0
  0
LINE
  8
0
 10
0.7435522580005818
 20
-1.49540556390279
 30
0
 11
0.7743958766786019
 21
-1.49540556390279
 31
0
  0
LINE
  8
0
 10
0.7363199612096323
 20
-1.492897761648419
 30
0
 11
0.7435522580005818
 21
-1.49540556390279
 31
0
  0
LINE
  8
0
 10
0.7312148105306223
 20
-1.49119604475581
 30
0
 11
0.7363199612096323
 21
-1.492897761648419
 31
0
  0
LINE
  8
0
 10
0.7280240913596027
 20
-1.48694175252493
 30
0
 11
0.7312148105306223
 21
-1.49119604475581
 31
0
  0
LINE
  8
0
 10
0.7254715160186135
 20
-1.477795024227989
 30
0
 11
0.7280240913596027
 21
-1.48694175252493
 31
0
  0
LINE
  8
0
 10
0.7254715160186135
 20
-1.43226271131851
 30
0
 11
0.7254715160186135
 21
-1.477795024227989
 31
0
  0
LINE
  8
0
 10
0.7743958766786019
 20
-1.43226271131851
 30
0
 11
0.7743958766786019
 21
-1.49540556390279
 31
0
  0
LINE
  8
0
 10
0.7904231533855709
 20
-1.43678062558839
 30
0
 11
0.8144665306556199
 21
-1.43678062558839
 31
0
  0
LINE
  8
0
 10
0.798580727816643
 20
-1.42075170740774
 30
0
 11
0.7987238431586521
 21
-1.49540556390279
 31
0
  0
LINE
  8
0
 10
0.8008705732705932
 20
-1.41230790229486
 30
0
 11
0.798580727816643
 21
-1.42075170740774
 31
0
  0
LINE
  8
0
 10
0.8050209181586615
 20
-1.407155750022699
 30
0
 11
0.8008705732705932
 21
-1.41230790229486
 31
0
  0
LINE
  8
0
 10
0.8100299550896416
 20
-1.405438365931899
 30
0
 11
0.8050209181586615
 21
-1.407155750022699
 31
0
  0
LINE
  8
0
 10
0.8148958766786017
 20
-1.40558148127272
 30
0
 11
0.8100299550896416
 21
-1.405438365931899
 31
0
  0
LINE
  8
0
 10
0.8958958766786019
 20
-1.463686309677119
 30
0
 11
0.8473797761126407
 21
-1.46382942501787
 31
0
  0
LINE
  8
0
 10
0.8958958766786019
 20
-1.450090352291809
 30
0
 11
0.8958958766786019
 21
-1.463686309677119
 31
0
  0
LINE
  8
0
 10
0.8943216079286831
 20
-1.4416465471789
 30
0
 11
0.8958958766786019
 21
-1.450090352291809
 31
0
  0
LINE
  8
0
 10
0.8903143783827219
 20
-1.43735308695192
 30
0
 11
0.8943216079286831
 21
-1.4416465471789
 31
0
  0
LINE
  8
0
 10
0.8854484567936597
 20
-1.434204549452239
 30
0
 11
0.8903143783827219
 21
-1.43735308695192
 31
0
  0
LINE
  8
0
 10
0.8780064590666298
 20
-1.43226271131851
 30
0
 11
0.8854484567936597
 21
-1.434204549452239
 31
0
  0
LINE
  8
0
 10
0.8654123090667016
 20
-1.43226271131851
 30
0
 11
0.8780064590666298
 21
-1.43226271131851
 31
0
  0
LINE
  8
0
 10
0.8575409653166899
 20
-1.434204549452239
 30
0
 11
0.8654123090667016
 21
-1.43226271131851
 31
0
  0
LINE
  8
0
 10
0.8536768511126503
 20
-1.43706685627003
 30
0
 11
0.8575409653166899
 21
-1.434204549452239
 31
0
  0
LINE
  8
0
 10
0.8498127369086907
 20
-1.44078785513348
 30
0
 11
0.8536768511126503
 21
-1.43706685627003
 31
0
  0
LINE
  8
0
 10
0.8473797761126407
 20
-1.450233467632619
 30
0
 11
0.8498127369086907
 21
-1.44078785513348
 31
0
  0
LINE
  8
0
 10
0.8473797761126407
 20
-1.476852921039739
 30
0
 11
0.8473797761126407
 21
-1.450233467632619
 31
0
  0
LINE
  8
0
 10
0.8500989675926321
 20
-1.486012302857189
 30
0
 11
0.8473797761126407
 21
-1.476852921039739
 31
0
  0
LINE
  8
0
 10
0.8528181590696512
 20
-1.49030576308395
 30
0
 11
0.8500989675926321
 21
-1.486012302857189
 31
0
  0
LINE
  8
0
 10
0.8576840806586224
 20
-1.493024954560889
 30
0
 11
0.8528181590696512
 21
-1.49030576308395
 31
0
  0
LINE
  8
0
 10
0.8659847704316127
 20
-1.49540556390279
 30
0
 11
0.8576840806586224
 21
-1.493024954560889
 31
0
  0
LINE
  8
0
 10
0.8958958766786019
 20
-1.49540556390279
 30
0
 11
0.8659847704316127
 21
-1.49540556390279
 31
0
  0
LINE
  8
0
 10
0.9764899375016028
 20
-1.44397157940012
 30
0
 11
0.9768958766786017
 21
-1.49540556390279
 31
0
  0
LINE
  8
0
 10
0.9738513328616318
 20
-1.439303278882289
 30
0
 11
0.9764899375016028
 21
-1.44397157940012
 31
0
  0
LINE
  8
0
 10
0.9704008498706317
 20
-1.435446856715209
 30
0
 11
0.9738513328616318
 21
-1.439303278882289
 31
0
  0
LINE
  8
0
 10
0.9639058230625707
 20
-1.43226271131851
 30
0
 11
0.9704008498706317
 21
-1.435446856715209
 31
0
  0
LINE
  8
0
 10
0.9279802060346009
 20
-1.43226271131851
 30
0
 11
0.9639058230625707
 21
-1.43226271131851
 31
0
  0
LINE
  8
0
 10
0.9273712972706306
 20
-1.49540556390279
 30
0
 11
0.9279802060346009
 21
-1.43226271131851
 31
0
  0
LINE
  8
0
 10
-0.4088065063448703
 20
-0.6906052509431904
 30
0
 11
-0.5084360069595677
 21
-0.7260440032890892
 31
0
  0
LINE
  8
0
 10
-0.4088065063448703
 20
-0.6906052509431904
 30
0
 11
-0.4331081324263469
 21
-0.5877289366822788
 31
0
  0
LINE
  8
0
 10
-0.3682554679661298
 20
-0.6761810272181902
 30
0
 11
-0.3459381895275183
 21
-0.63520262615691
 31
0
  0
LINE
  8
0
 10
-0.3682554679661298
 20
-0.6761810272181902
 30
0
 11
-0.4088065063448703
 21
-0.6906052509431904
 31
0
  0
LINE
  8
0
 10
-0.4212660640607573
 20
-0.7735176927637002
 30
0
 11
-0.3682554679661298
 21
-0.6761810272181902
 31
0
  0
LINE
  8
0
 10
-0.5829592989227095
 20
-0.5620341460506697
 30
0
 11
-0.5207066946923078
 21
-0.50201608077112
 31
0
  0
LINE
  8
0
 10
-0.5829592989227095
 20
-0.5620341460506697
 30
0
 11
-0.6420791301708195
 21
-0.5003876712097792
 31
0
  0
LINE
  8
0
 10
-0.6340903272423384
 20
-0.6113298411213001
 30
0
 11
-0.7029392060605898
 21
-0.5399176423972003
 31
0
  0
LINE
  8
0
 10
-0.5207066946923078
 20
-0.50201608077112
 30
0
 11
-0.5895555735105991
 21
-0.4306038820469694
 31
0
  0
LINE
  8
0
 10
-0.6340903272423384
 20
-0.6113298411213001
 30
0
 11
-0.5829592989227095
 21
-0.5620341460506697
 31
0
  0
LINE
  8
0
 10
-0.6472281841672376
 20
-0.3228796755291096
 30
0
 11
-0.788161810252077
 21
-0.3931865697196899
 31
0
  0
LINE
  8
0
 10
-0.832461881791289
 20
-0.3043848982802901
 30
0
 11
-0.6915282557064493
 21
-0.2340780040896898
 31
0
  0
LINE
  8
0
 10
-0.6915282557064493
 20
-0.2340780040896898
 30
0
 11
-0.788161810252077
 21
-0.3931865697196899
 31
0
  0
LINE
  8
0
 10
-0.7142452310120498
 20
-0.1140585692822497
 30
0
 11
-0.8697717868431792
 21
-0.1388947679339999
 31
0
  0
LINE
  8
0
 10
-0.8854209687577095
 20
-0.04089815424647895
 30
0
 11
-0.7298944129266203
 21
-0.01606195559471053
 31
0
  0
LINE
  8
0
 10
-0.7298944129266203
 20
-0.01606195559471053
 30
0
 11
-0.8697717868431792
 21
-0.1388947679339999
 31
0
  0
LINE
  8
0
 10
-0.7232297857430569
 20
0.1209709875389999
 30
0
 11
-0.7087251435183572
 21
0.1432602837535796
 31
0
  0
LINE
  8
0
 10
-0.7325118757313104
 20
0.115258940797481
 30
0
 11
-0.7232297857430569
 21
0.1209709875389999
 31
0
  0
LINE
  8
0
 10
-0.7601755174882675
 20
0.1118053946795408
 30
0
 11
-0.7325118757313104
 21
0.115258940797481
 31
0
  0
LINE
  8
0
 10
-0.8238431449086493
 20
0.1211503441028508
 30
0
 11
-0.7601755174882675
 21
0.1118053946795408
 31
0
  0
LINE
  8
0
 10
-0.8491897403356379
 20
0.1319281630574806
 30
0
 11
-0.8238431449086493
 21
0.1211503441028508
 31
0
  0
LINE
  8
0
 10
-0.8625854712884393
 20
0.1526073974674709
 30
0
 11
-0.8491897403356379
 21
0.1319281630574806
 31
0
  0
LINE
  8
0
 10
-0.8644871038995079
 20
0.166578987674171
 30
0
 11
-0.8625854712884393
 21
0.1526073974674709
 31
0
  0
LINE
  8
0
 10
-0.7852916066124271
 20
0.2158864123389903
 30
0
 11
-0.7903739475268486
 21
0.1812601588295311
 31
0
  0
LINE
  8
0
 10
-0.6999048228346183
 20
0.2033535882311899
 30
0
 11
-0.7852916066124271
 21
0.2158864123389903
 31
0
  0
LINE
  8
0
 10
-0.7087251435183572
 20
0.1432602837535796
 30
0
 11
-0.6999048228346183
 21
0.2033535882311899
 31
0
  0
LINE
  8
0
 10
-0.8556012046233701
 20
0.2271190825192007
 30
0
 11
-0.8644871038995079
 21
0.166578987674171
 31
0
  0
LINE
  8
0
 10
-0.6438338732637567
 20
0.3396043895047205
 30
0
 11
-0.6349267350447481
 21
0.3466288598481406
 31
0
  0
LINE
  8
0
 10
-0.6592867711554172
 20
0.3314601327092205
 30
0
 11
-0.6438338732637567
 21
0.3396043895047205
 31
0
  0
LINE
  8
0
 10
-0.6777756879776972
 20
0.3305073979157096
 30
0
 11
-0.6592867711554172
 21
0.3314601327092205
 31
0
  0
LINE
  8
0
 10
-0.6939749560339188
 20
0.3347157488406101
 30
0
 11
-0.6777756879776972
 21
0.3305073979157096
 31
0
  0
LINE
  8
0
 10
-0.7508129611132099
 20
0.3640603126292008
 30
0
 11
-0.6939749560339188
 21
0.3347157488406101
 31
0
  0
LINE
  8
0
 10
-0.7627366643203787
 20
0.3743714073289702
 30
0
 11
-0.7508129611132099
 21
0.3640603126292008
 31
0
  0
LINE
  8
0
 10
-0.7673767521135195
 20
0.3842657758705409
 30
0
 11
-0.7627366643203787
 21
0.3743714073289702
 31
0
  0
LINE
  8
0
 10
-0.7717304498930898
 20
0.3932624093206705
 30
0
 11
-0.7673767521135195
 21
0.3842657758705409
 31
0
  0
LINE
  8
0
 10
-0.7754149550161492
 20
0.4079125608116702
 30
0
 11
-0.7717304498930898
 21
0.3932624093206705
 31
0
  0
LINE
  8
0
 10
-0.7741089068183792
 20
0.4203611067185811
 30
0
 11
-0.7754149550161492
 21
0.4079125608116702
 31
0
  0
LINE
  8
0
 10
-0.7644802218251171
 20
0.4390110771355103
 30
0
 11
-0.7741089068183792
 21
0.4203611067185811
 31
0
  0
LINE
  8
0
 10
-0.7549541773983294
 20
0.4460909542115296
 30
0
 11
-0.7644802218251171
 21
0.4390110771355103
 31
0
  0
LINE
  8
0
 10
-0.7430922198754597
 20
0.4530896509531613
 30
0
 11
-0.7549541773983294
 21
0.4460909542115296
 31
0
  0
LINE
  8
0
 10
-0.72145158896664
 20
0.4557896496164612
 30
0
 11
-0.7430922198754597
 21
0.4530896509531613
 31
0
  0
LINE
  8
0
 10
-0.7049495436511497
 20
0.4528939778166005
 30
0
 11
-0.72145158896664
 21
0.4557896496164612
 31
0
  0
LINE
  8
0
 10
-0.6475194760187587
 20
0.4232437414884807
 30
0
 11
-0.7049495436511497
 21
0.4528939778166005
 31
0
  0
LINE
  8
0
 10
-0.635736072538908
 20
0.4126608977632295
 30
0
 11
-0.6475194760187587
 21
0.4232437414884807
 31
0
  0
LINE
  8
0
 10
-0.63005505464624
 20
0.4026040516885005
 30
0
 11
-0.635736072538908
 21
0.4126608977632295
 31
0
  0
LINE
  8
0
 10
-0.6245365142867195
 20
0.3915062755141807
 30
0
 11
-0.63005505464624
 21
0.4026040516885005
 31
0
  0
LINE
  8
0
 10
-0.62319133558674
 20
0.3803135106487698
 30
0
 11
-0.6245365142867195
 21
0.3915062755141807
 31
0
  0
LINE
  8
0
 10
-0.624533868702958
 20
0.3667589866470698
 30
0
 11
-0.62319133558674
 21
0.3803135106487698
 31
0
  0
LINE
  8
0
 10
-0.6349267350447481
 20
0.3466288598481406
 30
0
 11
-0.624533868702958
 21
0.3667589866470698
 31
0
  0
LINE
  8
0
 10
-0.6029186766428576
 20
0.6395052683394497
 30
0
 11
-0.5689505052330169
 21
0.6756183071839496
 31
0
  0
LINE
  8
0
 10
-0.4881966575605402
 20
0.5315969523030308
 30
0
 11
-0.6029186766428576
 21
0.6395052683394497
 31
0
  0
LINE
  8
0
 10
-0.63754835397012
 20
0.6026889538135601
 30
0
 11
-0.6029186766428576
 21
0.6395052683394497
 31
0
  0
LINE
  8
0
 10
-0.4364421806367574
 20
0.76672524171039
 30
0
 11
-0.3948314356177871
 21
0.7936795390017907
 31
0
  0
LINE
  8
0
 10
-0.3508151742379378
 20
0.634538396270611
 30
0
 11
-0.4364421806367574
 21
0.76672524171039
 31
0
  0
LINE
  8
0
 10
-0.4788632652447886
 20
0.7392460286987498
 30
0
 11
-0.4364421806367574
 21
0.76672524171039
 31
0
  0
LINE
  8
0
 10
0.593507672117623
 20
0.6508020904124807
 30
0
 11
0.6301400770148831
 21
0.6173946787355308
 31
0
  0
LINE
  8
0
 10
0.4873807483658202
 20
0.534430176330421
 30
0
 11
0.593507672117623
 21
0.6508020904124807
 31
0
  0
LINE
  8
0
 10
0.5561618772554503
 20
0.6848600876109394
 30
0
 11
0.593507672117623
 21
0.6508020904124807
 31
0
  0
LINE
  8
0
 10
0.7217283635273125
 20
0.35458649183948
 30
0
 11
0.692553255805753
 21
0.4030162375466607
 31
0
  0
LINE
  8
0
 10
0.7217283635273125
 20
0.35458649183948
 30
0
 11
0.6752026442387722
 21
0.2777781661080699
 31
0
  0
LINE
  8
0
 10
0.692553255805753
 20
0.4030162375466607
 30
0
 11
0.7612747916239714
 21
0.4430072340104307
 31
0
  0
LINE
  8
0
 10
0.7265466611666708
 20
0.3465882718622397
 30
0
 11
0.7217283635273125
 21
0.35458649183948
 31
0
  0
LINE
  8
0
 10
0.7362703483332916
 20
0.3345155459979997
 30
0
 11
0.7265466611666708
 21
0.3465882718622397
 31
0
  0
LINE
  8
0
 10
0.7478469731101103
 20
0.3285320917274003
 30
0
 11
0.7362703483332916
 21
0.3345155459979997
 31
0
  0
LINE
  8
0
 10
0.7578731763821307
 20
0.3305120101251596
 30
0
 11
0.7478469731101103
 21
0.3285320917274003
 31
0
  0
LINE
  8
0
 10
0.7693131094660204
 20
0.3313873119207401
 30
0
 11
0.7578731763821307
 21
0.3305120101251596
 31
0
  0
LINE
  8
0
 10
0.7844068799350898
 20
0.3405562630601307
 30
0
 11
0.7693131094660204
 21
0.3313873119207401
 31
0
  0
LINE
  8
0
 10
0.796416115405671
 20
0.3583376876590502
 30
0
 11
0.7844068799350898
 21
0.3405562630601307
 31
0
  0
LINE
  8
0
 10
0.7979387763412524
 20
0.3696312181432495
 30
0
 11
0.796416115405671
 21
0.3583376876590502
 31
0
  0
LINE
  8
0
 10
0.7954097441313897
 20
0.3843488716582906
 30
0
 11
0.7979387763412524
 21
0.3696312181432495
 31
0
  0
LINE
  8
0
 10
0.7612747916239714
 20
0.4430072340104307
 30
0
 11
0.7954097441313897
 21
0.3843488716582906
 31
0
  0
LINE
  8
0
 10
0.6251489156490607
 20
0.3637917543224103
 30
0
 11
0.692553255805753
 21
0.4030162375466607
 31
0
  0
LINE
  8
0
 10
0.7897810771193617
 20
0.1788009389000599
 30
0
 11
0.7054425496897129
 21
0.1597072832950398
 31
0
  0
LINE
  8
0
 10
0.7897810771193617
 20
0.1788009389000599
 30
0
 11
0.8084203499330616
 21
0.09544615609735047
 31
0
  0
LINE
  8
0
 10
0.8590523258928223
 20
0.1944834674871599
 30
0
 11
0.8809553441728022
 21
0.09773571282910054
 31
0
  0
LINE
  8
0
 10
0.7054425496897129
 20
0.1597072832950398
 30
0
 11
0.7273455679696927
 21
0.06295952863700041
 31
0
  0
LINE
  8
0
 10
0.8590523258928223
 20
0.1944834674871599
 30
0
 11
0.7897810771193617
 21
0.1788009389000599
 31
0
  0
LINE
  8
0
 10
0.7979369728812707
 20
-0.1470334591625597
 30
0
 11
0.7929939178493806
 21
-0.1339261096061
 31
0
  0
LINE
  8
0
 10
0.801660665757001
 20
-0.1587038166949405
 30
0
 11
0.7979369728812707
 21
-0.1470334591625597
 31
0
  0
LINE
  8
0
 10
0.8120140451404915
 20
-0.16289477889113
 30
0
 11
0.801660665757001
 21
-0.1587038166949405
 31
0
  0
LINE
  8
0
 10
0.82325474240744
 20
-0.1684955293774801
 30
0
 11
0.8120140451404915
 21
-0.16289477889113
 31
0
  0
LINE
  8
0
 10
0.8379463015959808
 20
-0.16869636083357
 30
0
 11
0.82325474240744
 21
-0.1684955293774801
 31
0
  0
LINE
  8
0
 10
0.8577761478016511
 20
-0.1633012476543499
 30
0
 11
0.8379463015959808
 21
-0.16869636083357
 31
0
  0
LINE
  8
0
 10
0.8676934738300224
 20
-0.1524141989222389
 30
0
 11
0.8577761478016511
 21
-0.1633012476543499
 31
0
  0
LINE
  8
0
 10
0.8723749877326228
 20
-0.1387582792664089
 30
0
 11
0.8676934738300224
 21
-0.1524141989222389
 31
0
  0
LINE
  8
0
 10
0.8778508677556129
 20
-0.07192059321471972
 30
0
 11
0.8723749877326228
 21
-0.1387582792664089
 31
0
  0
LINE
  8
0
 10
0.7986058165398209
 20
-0.06542820219233909
 30
0
 11
0.8778508677556129
 21
-0.07192059321471972
 31
0
  0
LINE
  8
0
 10
0.7986058165398209
 20
-0.06542820219233909
 30
0
 11
0.7929939178493806
 21
-0.1339261096061
 31
0
  0
LINE
  8
0
 10
0.7208796667341922
 20
-0.05906025177205994
 30
0
 11
0.7986058165398209
 21
-0.06542820219233909
 31
0
  0
LINE
  8
0
 10
0.7171899254686723
 20
-0.3794217463596106
 30
0
 11
0.7164024592864697
 21
-0.365435456556479
 31
0
  0
LINE
  8
0
 10
0.7172447583876601
 20
-0.3916716494986504
 30
0
 11
0.7171899254686723
 21
-0.3794217463596106
 31
0
  0
LINE
  8
0
 10
0.7258661463431019
 20
-0.3987729380092296
 30
0
 11
0.7172447583876601
 21
-0.3916716494986504
 31
0
  0
LINE
  8
0
 10
0.7349115400708106
 20
-0.4074851440081694
 30
0
 11
0.7258661463431019
 21
-0.3987729380092296
 31
0
  0
LINE
  8
0
 10
0.7488675571923303
 20
-0.4120799052389102
 30
0
 11
0.7349115400708106
 21
-0.4074851440081694
 31
0
  0
LINE
  8
0
 10
0.7694028043366526
 20
-0.4128759400858689
 30
0
 11
0.7488675571923303
 21
-0.4120799052389102
 31
0
  0
LINE
  8
0
 10
0.7821271677166334
 20
-0.4054616456336191
 30
0
 11
0.7694028043366526
 21
-0.4128759400858689
 31
0
  0
LINE
  8
0
 10
0.7906862520449832
 20
-0.3938365525361605
 30
0
 11
0.7821271677166334
 21
-0.4054616456336191
 31
0
  0
LINE
  8
0
 10
0.8159421291323307
 20
-0.3317124653289993
 30
0
 11
0.7906862520449832
 21
-0.3938365525361605
 31
0
  0
LINE
  8
0
 10
0.7422856822491014
 20
-0.3017682318954794
 30
0
 11
0.8159421291323307
 21
-0.3317124653289993
 31
0
  0
LINE
  8
0
 10
0.7422856822491014
 20
-0.3017682318954794
 30
0
 11
0.7164024592864697
 21
-0.365435456556479
 31
0
  0
LINE
  8
0
 10
0.6700410191848423
 20
-0.2723979439347804
 30
0
 11
0.7422856822491014
 21
-0.3017682318954794
 31
0
  0
LINE
  8
0
 10
0.6242639955049308
 20
-0.5157697058218491
 30
0
 11
0.5576005774596706
 21
-0.46069209160436
 31
0
  0
LINE
  8
0
 10
0.6242639955049308
 20
-0.5157697058218491
 30
0
 11
0.5696872112816127
 21
-0.5814721938337297
 31
0
  0
LINE
  8
0
 10
0.6790178352533514
 20
-0.5610075731712696
 30
0
 11
0.6158363253330208
 21
-0.6374795748799498
 31
0
  0
LINE
  8
0
 10
0.5576005774596706
 20
-0.46069209160436
 30
0
 11
0.4944190675393402
 21
-0.5371640933130893
 31
0
  0
LINE
  8
0
 10
0.6790178352533514
 20
-0.5610075731712696
 30
0
 11
0.6242639955049308
 21
-0.5157697058218491
 31
0
  0
LINE
  8
0
 10
-0.2004462569528187
 20
-1.28279533440561
 30
0
 11
-0.204289326452239
 21
-1.296038931351619
 31
0
  0
LINE
  8
0
 10
-0.1938244584797576
 20
-1.271378440486589
 30
0
 11
-0.2004462569528187
 21
-1.28279533440561
 31
0
  0
LINE
  8
0
 10
-0.1840059297097869
 20
-1.2642999662571
 30
0
 11
-0.1938244584797576
 21
-1.271378440486589
 31
0
  0
LINE
  8
0
 10
-0.1744157388177373
 20
-1.260189884446119
 30
0
 11
-0.1840059297097869
 21
-1.2642999662571
 31
0
  0
LINE
  8
0
 10
-0.15363699188584
 20
-1.2606465602031
 30
0
 11
-0.1744157388177373
 21
-1.260189884446119
 31
0
  0
LINE
  8
0
 10
-0.1419917600882472
 20
-1.264756642013599
 30
0
 11
-0.15363699188584
 21
-1.2606465602031
 31
0
  0
LINE
  8
0
 10
-0.1326299070752793
 20
-1.27183511624361
 30
0
 11
-0.1419917600882472
 21
-1.264756642013599
 31
0
  0
LINE
  8
0
 10
-0.1264647843587991
 20
-1.281653645013539
 30
0
 11
-0.1326299070752793
 21
-1.27183511624361
 31
0
  0
LINE
  8
0
 10
-0.1228113783047302
 20
-1.29626726922954
 30
0
 11
-0.1264647843587991
 21
-1.281653645013539
 31
0
  0
LINE
  8
0
 10
-0.1225830404262197
 20
-1.313164272229589
 30
0
 11
-0.1228113783047302
 21
-1.29626726922954
 31
0
  0
LINE
  8
0
 10
-0.1260081086022183
 20
-1.328006234324099
 30
0
 11
-0.1225830404262197
 21
-1.313164272229589
 31
0
  0
LINE
  8
0
 10
-0.1324015691967797
 20
-1.33782476309411
 30
0
 11
-0.1260081086022183
 21
-1.328006234324099
 31
0
  0
LINE
  8
0
 10
-0.1422200979667468
 20
-1.345131575202109
 30
0
 11
-0.1324015691967797
 21
-1.33782476309411
 31
0
  0
LINE
  8
0
 10
-0.1520386267373069
 20
-1.349624680584609
 30
0
 11
-0.1422200979667468
 21
-1.345131575202109
 31
0
  0
LINE
  8
0
 10
-0.1741874009398089
 20
-1.349624680584609
 30
0
 11
-0.1520386267373069
 21
-1.349624680584609
 31
0
  0
LINE
  8
0
 10
-0.1849192812232286
 20
-1.346729940351039
 30
0
 11
-0.1741874009398089
 21
-1.349624680584609
 31
0
  0
LINE
  8
0
 10
-0.1940527963582681
 20
-1.33850977672959
 30
0
 11
-0.1849192812232286
 21
-1.346729940351039
 31
0
  0
LINE
  8
0
 10
-0.2006745948313292
 20
-1.32777789644559
 30
0
 11
-0.1940527963582681
 21
-1.33850977672959
 31
0
  0
LINE
  8
0
 10
-0.204289326452239
 20
-1.3133926101081
 30
0
 11
-0.2006745948313292
 21
-1.32777789644559
 31
0
  0
LINE
  8
0
 10
-0.204289326452239
 20
-1.296038931351619
 30
0
 11
-0.204289326452239
 21
-1.3133926101081
 31
0
  0
LINE
  8
0
 10
-0.2011312705877572
 20
-1.2661266692841
 30
0
 11
-0.204289326452239
 21
-1.296038931351619
 31
0
  0
LINE
  8
0
 10
-0.1942811342367786
 20
-1.251513045068099
 30
0
 11
-0.2011312705877572
 21
-1.2661266692841
 31
0
  0
LINE
  8
0
 10
-0.180352523655718
 20
-1.23393102843304
 30
0
 11
-0.1942811342367786
 21
-1.251513045068099
 31
0
  0
LINE
  8
0
 10
-0.1429051116022674
 20
-1.19951181183759
 30
0
 11
-0.180352523655718
 21
-1.23393102843304
 31
0
  0
LINE
  8
0
 10
-0.2995054733582583
 20
-1.27447693011957
 30
0
 11
-0.3533871722411677
 21
-1.27529451525454
 31
0
  0
LINE
  8
0
 10
-0.2995054733582583
 20
-1.27447693011957
 30
0
 11
-0.2585356505476775
 21
-1.349624680584609
 31
0
  0
LINE
  8
0
 10
-0.3533871722411677
 20
-1.27529451525454
 30
0
 11
-0.3533871722411677
 21
-1.19951181183759
 31
0
  0
LINE
  8
0
 10
-0.2906068579697967
 20
-1.27434190513312
 30
0
 11
-0.2995054733582583
 21
-1.27447693011957
 31
0
  0
LINE
  8
0
 10
-0.2760001694407802
 20
-1.27211914818309
 30
0
 11
-0.2906068579697967
 21
-1.27434190513312
 31
0
  0
LINE
  8
0
 10
-0.2655214581051769
 20
-1.2654508773331
 30
0
 11
-0.2760001694407802
 21
-1.27211914818309
 31
0
  0
LINE
  8
0
 10
-0.2623460910337999
 20
-1.25624231282557
 30
0
 11
-0.2655214581051769
 21
-1.2654508773331
 31
0
  0
LINE
  8
0
 10
-0.2575830404262197
 20
-1.246398674904091
 30
0
 11
-0.2623460910337999
 21
-1.25624231282557
 31
0
  0
LINE
  8
0
 10
-0.2579005771338088
 20
-1.229569229425621
 30
0
 11
-0.2575830404262197
 21
-1.246398674904091
 31
0
  0
LINE
  8
0
 10
-0.2667916049337873
 20
-1.2111521004111
 30
0
 11
-0.2579005771338088
 21
-1.229569229425621
 31
0
  0
LINE
  8
0
 10
-0.2753650960267696
 20
-1.20448382956107
 30
0
 11
-0.2667916049337873
 21
-1.2111521004111
 31
0
  0
LINE
  8
0
 10
-0.2887016377267391
 20
-1.19951181183759
 30
0
 11
-0.2753650960267696
 21
-1.20448382956107
 31
0
  0
LINE
  8
0
 10
-0.3533871722411677
 20
-1.19951181183759
 30
0
 11
-0.2887016377267391
 21
-1.19951181183759
 31
0
  0
LINE
  8
0
 10
-0.3533871722411677
 20
-1.349624680584609
 30
0
 11
-0.3533871722411677
 21
-1.27529451525454
 31
0
  0
LINE
  8
0
 10
-0.4737201081472086
 20
-1.349624680584609
 30
0
 11
-0.3930490350201981
 21
-1.349624680584609
 31
0
  0
LINE
  8
0
 10
-0.3998059566347802
 20
-1.2528257832781
 30
0
 11
-0.4737201081472086
 21
-1.349624680584609
 31
0
  0
LINE
  8
0
 10
-0.3925830404262197
 20
-1.23674896978112
 30
0
 11
-0.3998059566347802
 21
-1.2528257832781
 31
0
  0
LINE
  8
0
 10
-0.3925830404262197
 20
-1.222769131957619
 30
0
 11
-0.3925830404262197
 21
-1.23674896978112
 31
0
  0
LINE
  8
0
 10
-0.3995729593377874
 20
-1.21111926710459
 30
0
 11
-0.3925830404262197
 21
-1.222769131957619
 31
0
  0
LINE
  8
0
 10
-0.4093588458142478
 20
-1.203430356302089
 30
0
 11
-0.3995729593377874
 21
-1.21111926710459
 31
0
  0
LINE
  8
0
 10
-0.4231056863408303
 20
-1.19951181183759
 30
0
 11
-0.4093588458142478
 21
-1.203430356302089
 31
0
  0
LINE
  8
0
 10
-0.4433764511847075
 20
-1.19951181183759
 30
0
 11
-0.4231056863408303
 21
-1.19951181183759
 31
0
  0
LINE
  8
0
 10
-0.4575892863052687
 20
-1.20389635089611
 30
0
 11
-0.4433764511847075
 21
-1.19951181183759
 31
0
  0
LINE
  8
0
 10
-0.465977188999208
 20
-1.21135226440209
 30
0
 11
-0.4575892863052687
 21
-1.20389635089611
 31
0
  0
LINE
  8
0
 10
-0.4737201081472086
 20
-1.22300212925461
 30
0
 11
-0.465977188999208
 21
-1.21135226440209
 31
0
  0
LINE
  8
0
 10
-0.5275830404262197
 20
-1.19951181183759
 30
0
 11
-0.5275830404262197
 21
-1.349624680584609
 31
0
  0
LINE
  8
0
 10
-0.568877417232259
 20
-1.24490387517807
 30
0
 11
-0.5275830404262197
 21
-1.19951181183759
 31
0
  0
LINE
  8
0
 10
-0.6762201081472086
 20
-1.349624680584609
 30
0
 11
-0.595549035020198
 21
-1.349624680584609
 31
0
  0
LINE
  8
0
 10
-0.6023059566347801
 20
-1.2528257832781
 30
0
 11
-0.6762201081472086
 21
-1.349624680584609
 31
0
  0
LINE
  8
0
 10
-0.5950830404262197
 20
-1.23674896978112
 30
0
 11
-0.6023059566347801
 21
-1.2528257832781
 31
0
  0
LINE
  8
0
 10
-0.5950830404262197
 20
-1.222769131957619
 30
0
 11
-0.5950830404262197
 21
-1.23674896978112
 31
0
  0
LINE
  8
0
 10
-0.6020729593377874
 20
-1.21111926710459
 30
0
 11
-0.5950830404262197
 21
-1.222769131957619
 31
0
  0
LINE
  8
0
 10
-0.6118588458142478
 20
-1.203430356302089
 30
0
 11
-0.6020729593377874
 21
-1.21111926710459
 31
0
  0
LINE
  8
0
 10
-0.6256056863408304
 20
-1.19951181183759
 30
0
 11
-0.6118588458142478
 21
-1.203430356302089
 31
0
  0
LINE
  8
0
 10
-0.6458764511847076
 20
-1.19951181183759
 30
0
 11
-0.6256056863408304
 21
-1.19951181183759
 31
0
  0
LINE
  8
0
 10
-0.6600892863052686
 20
-1.20389635089611
 30
0
 11
-0.6458764511847076
 21
-1.19951181183759
 31
0
  0
LINE
  8
0
 10
-0.6684771889992079
 20
-1.21135226440209
 30
0
 11
-0.6600892863052686
 21
-1.20389635089611
 31
0
  0
LINE
  8
0
 10
-0.6762201081472086
 20
-1.22300212925461
 30
0
 11
-0.6684771889992079
 21
-1.21135226440209
 31
0
  0
LINE
  8
0
 10
-0.7720054733582583
 20
-1.27447693011957
 30
0
 11
-0.8258871722411677
 21
-1.27529451525454
 31
0
  0
LINE
  8
0
 10
-0.7720054733582583
 20
-1.27447693011957
 30
0
 11
-0.7310356505476774
 21
-1.349624680584609
 31
0
  0
LINE
  8
0
 10
-0.8258871722411677
 20
-1.27529451525454
 30
0
 11
-0.8258871722411677
 21
-1.19951181183759
 31
0
  0
LINE
  8
0
 10
-0.7631068579697967
 20
-1.27434190513312
 30
0
 11
-0.7720054733582583
 21
-1.27447693011957
 31
0
  0
LINE
  8
0
 10
-0.7485001694407801
 20
-1.27211914818309
 30
0
 11
-0.7631068579697967
 21
-1.27434190513312
 31
0
  0
LINE
  8
0
 10
-0.7380214581051768
 20
-1.2654508773331
 30
0
 11
-0.7485001694407801
 21
-1.27211914818309
 31
0
  0
LINE
  8
0
 10
-0.7348460910337999
 20
-1.25624231282557
 30
0
 11
-0.7380214581051768
 21
-1.2654508773331
 31
0
  0
LINE
  8
0
 10
-0.7300830404262197
 20
-1.246398674904091
 30
0
 11
-0.7348460910337999
 21
-1.25624231282557
 31
0
  0
LINE
  8
0
 10
-0.7304005771338089
 20
-1.229569229425621
 30
0
 11
-0.7300830404262197
 21
-1.246398674904091
 31
0
  0
LINE
  8
0
 10
-0.7392916049337873
 20
-1.2111521004111
 30
0
 11
-0.7304005771338089
 21
-1.229569229425621
 31
0
  0
LINE
  8
0
 10
-0.7478650960267696
 20
-1.20448382956107
 30
0
 11
-0.7392916049337873
 21
-1.2111521004111
 31
0
  0
LINE
  8
0
 10
-0.7612016377267392
 20
-1.19951181183759
 30
0
 11
-0.7478650960267696
 21
-1.20448382956107
 31
0
  0
LINE
  8
0
 10
-0.8258871722411677
 20
-1.19951181183759
 30
0
 11
-0.7612016377267392
 21
-1.19951181183759
 31
0
  0
LINE
  8
0
 10
-0.8258871722411677
 20
-1.349624680584609
 30
0
 11
-0.8258871722411677
 21
-1.27529451525454
 31
0
  0
LINE
  8
0
 10
-0.8789228716348297
 20
-1.207104780330119
 30
0
 11
-0.8694535134397703
 21
-1.214571005060539
 31
0
  0
LINE
  8
0
 10
-0.8880280237452497
 20
-1.204009028612099
 30
0
 11
-0.8789228716348297
 21
-1.207104780330119
 31
0
  0
LINE
  8
0
 10
-0.9058741218827783
 20
-1.19951181183759
 30
0
 11
-0.8880280237452497
 21
-1.204009028612099
 31
0
  0
LINE
  8
0
 10
-0.9195318500487774
 20
-1.19951181183759
 30
0
 11
-0.9058741218827783
 21
-1.19951181183759
 31
0
  0
LINE
  8
0
 10
-0.9426589364102693
 20
-1.20728688337204
 30
0
 11
-0.9195318500487774
 21
-1.19951181183759
 31
0
  0
LINE
  8
0
 10
-0.9535851189432688
 20
-1.214935211145099
 30
0
 11
-0.9426589364102693
 21
-1.20728688337204
 31
0
  0
LINE
  8
0
 10
-0.9563166645762685
 20
-1.226225599762589
 30
0
 11
-0.9535851189432688
 21
-1.214935211145099
 31
0
  0
LINE
  8
0
 10
-0.9568629737027768
 20
-1.234602339704619
 30
0
 11
-0.9563166645762685
 21
-1.226225599762589
 31
0
  0
LINE
  8
0
 10
-0.9532209128587783
 20
-1.24498221311057
 30
0
 11
-0.9568629737027768
 21
-1.234602339704619
 31
0
  0
LINE
  8
0
 10
-0.9442978637902379
 20
-1.251355819588071
 30
0
 11
-0.9532209128587783
 21
-1.24498221311057
 31
0
  0
LINE
  8
0
 10
-0.8860248902812273
 20
-1.2788533789626
 30
0
 11
-0.9442978637902379
 21
-1.251355819588071
 31
0
  0
LINE
  8
0
 10
-0.8761913260016881
 20
-1.28613750065161
 30
0
 11
-0.8860248902812273
 21
-1.2788533789626
 31
0
  0
LINE
  8
0
 10
-0.8692714103973086
 20
-1.2970636831841
 30
0
 11
-0.8761913260016881
 21
-1.28613750065161
 31
0
  0
LINE
  8
0
 10
-0.8659935556372184
 20
-1.307989865717109
 30
0
 11
-0.8692714103973086
 21
-1.2970636831841
 31
0
  0
LINE
  8
0
 10
-0.8650830404262196
 20
-1.316730811743621
 30
0
 11
-0.8659935556372184
 21
-1.307989865717109
 31
0
  0
LINE
  8
0
 10
-0.8689072043128181
 20
-1.326564376023091
 30
0
 11
-0.8650830404262196
 21
-1.316730811743621
 31
0
  0
LINE
  8
0
 10
-0.8750987077482277
 20
-1.3384010737671
 30
0
 11
-0.8689072043128181
 21
-1.326564376023091
 31
0
  0
LINE
  8
0
 10
-0.8852964781122573
 20
-1.3456851954556
 30
0
 11
-0.8750987077482277
 21
-1.3384010737671
 31
0
  0
LINE
  8
0
 10
-0.9016857519116894
 20
-1.349624680584609
 30
0
 11
-0.8852964781122573
 21
-1.3456851954556
 31
0
  0
LINE
  8
0
 10
-0.9233560139352304
 20
-1.349624680584609
 30
0
 11
-0.9016857519116894
 21
-1.349624680584609
 31
0
  0
LINE
  8
0
 10
-0.9391989786082995
 20
-1.34604940154012
 30
0
 11
-0.9233560139352304
 21
-1.349624680584609
 31
0
  0
LINE
  8
0
 10
-0.9532209128587783
 20
-1.33894738289361
 30
0
 11
-0.9391989786082995
 21
-1.34604940154012
 31
0
  0
LINE
  8
0
 10
-0.960278864513788
 20
-1.330934849036099
 30
0
 11
-0.9532209128587783
 21
-1.33894738289361
 31
0
  0
LINE
  8
0
 10
-1.094168478822219
 20
-1.349624680584609
 30
0
 11
-1.00008304042622
 21
-1.349624680584609
 31
0
  0
LINE
  8
0
 10
-1.00008304042622
 20
-1.19951181183759
 30
0
 11
-1.094168478822219
 21
-1.349624680584609
 31
0
  0
LINE
  8
0
 10
-1.094168478822219
 20
-1.19951181183759
 30
0
 11
-1.00008304042622
 21
-1.19951181183759
 31
0
  0
ARC
  8
0
 10
0
 20
0
 30
0
 40
0.6400000000000042
 50
130.7042313599746
 51
153.9806417871644
  0
ARC
  8
0
 10
0
 20
0
 30
0
 40
0.6399999999999976
 50
153.9806417871644
 51
177.2570522143544
  0
ARC
  8
0
 10
0
 20
0
 30
0
 40
0.6400000000000035
 50
177.2570522143544
 51
200.5334626415434
  0
ARC
  8
0
 10
0
 20
0
 30
0
 40
0.6399999999999976
 50
200.5334626415434
 51
223.8098730687336
  0
ARC
  8
0
 10
0
 20
0
 30
0
 40
0.6399999999999996
 50
223.8098730687336
 51
247.0862834959243
  0
ARC
  8
0
 10
0
 20
0
 30
0
 40
0.6399999999999971
 50
247.0862834959243
 51
270.3626939231134
  0
ARC
  8
0
 10
0
 20
0
 30
0
 40
0.6399999999999947
 50
270.3626939231134
 51
293.6391043503032
  0
ARC
  8
0
 10
0
 20
0
 30
0
 40
0.6400000000000017
 50
293.6391043503032
 51
316.9155147774928
  0
ARC
  8
0
 10
0
 20
0
 30
0
 40
0.6399999999999998
 50
316.9155147774928
 51
340.1919252046823
  0
ARC
  8
0
 10
0
 20
0
 30
0
 40
0.6400000000000028
 50
340.1919252046823
 51
3.468335631872363
  0
ARC
  8
0
 10
0
 20
0
 30
0
 40
0.64
 50
3.468335631872363
 51
26.74474605906205
  0
ARC
  8
0
 10
0
 20
0
 30
0
 40
0.6399999999999999
 50
26.74474605906205
 51
50.02115648625192
  0
ARC
  8
0
 10
0
 20
0
 30
0
 40
0.6400000000000036
 50
50.02115648625192
 51
73.29756691344049
  0
ARC
  8
0
 10
0
 20
0
 30
0
 40
1.107500000000003
 50
53.39529584893246
 51
126.6047041510674
  0
CIRCLE
  8
0
  6
DASHED
 10
0
 20
0
 30
0
 40
1.1375
  0
CIRCLE
  8
0
 10
0.183936764082322
 20
0.6129985863107104
 30
0
 40
0.07000000000000001
  0
INSERT
  8
0
  2
*D0
 10
0
 20
0
 30
0
 43
1
  0
INSERT
  8
0
  2
*D1
 10
0
 20
0
 30
0
 43
1
  0
ENDSEC
  0
EOF
